>
 >
Paschendale

Paschendale Guitar Tabs

Iron Maiden - Paschendale chords, tabs, tablatures, lyrics

Guitar lessons | Add/correct | Request | Top 50 tabs Artists:  A B C D E F G H I J K L M N O P Q R S T U V W X Y Z 0-9

Paschendale Guitar Tabs – Iron Maiden

CD, Sheet music, Poster

Do you like Paschendale? Share with your friends now
Bass TabsBass Tabs v2ChordsTabsTabs v2Tabs v3Tabs v4Tabs v5Ukulele
/\    /\          ___        ___     ____ 
  /  \  /  \        /  |    |   |  \   |        \   | 
 /    \/    \    \ /   |    |       \  |----    | \ |
/             \   /___ |    |   | _ /  \____    |  \|
PASCHENDALE                                  |
(Smith/Harris)
Right this one has taken me ages to tab but here it is.

T=Triplet
H=hammer on
^=Bend
/=Slide up
\=Slide down

Intro: Adrian Smith.
        T         T         T         T         T         T         T         T              T
----0h10h12----0h8h12----0h7h12----0h5h12----0h7h12----0h7h12----0h5h12----0h3h12----0h2h12h0h12----------
Repeat 3 more times 
Enter: Janick Gers+ Dave Murray
-----9--9----5--5----3--3---2--2---------3-3---2-2----------- 2-2----------------------------------------------------------------
-----7--7----7--7----5--5---4--4---------5-5---4-4----2--2---2-2----------------------------------------------------------------
------------------------------------------------------------4--4-----------------------------------------------------------------------

-----9--9----5--5----3--3---2--2----------3-3---7-7--7-7---9-9------------------------------------------------------------------
-----7--7----7--7----5--5---4--4----------5-5---5-5--5-5---7-7------------------------------------------------------------------
Adrian
        T         T         T         T         T         T         T         T            T
----0h10h12----0h8h12----0h7h12----0h5h12----0h7h12----0h7h12----0h5h12----0h3h12----0h2h12h0h12----------
Play 2 more times
Janick+Dave
-----9--9----5--5----3--3---2--2--^-------3-3---2-2---------- 2-2---------------------------------------------------------------
-----7--7----7--7----5--5---4--4--^-------5-5---4-4----2--2--2-2--------------------------------------------------------------
--------------------------------------------------------------4--4--------------------------------------------------------------------

-----9--9----5--5----3--3---2--2--^-------3-3---2-2---------- 2-2---------------------------------------------------------------
-----7--7----7--7----5--5---4--4--^-------5-5---4-4----2--2--2-2--------------------------------------------------------------
--------------------------------------------------------------4--4--------------------------------------------------------------------
End of intro.

--------9----9----9--9--9--9----9--9--9--9---5-5----7--7--7----9--9--9--9---9--9---9-9-9-----11-11-11-11---------------
--------7----7----7--7--7--7----7--7--7--7---3-3----5--5--5----7--7--7--7---7--7---7-7-7------9--9---9--9----------------


---5-5----7--7--7----------9--9--9--9---9--9----9-9-9---9-9-9----5--5---7-7-7-7---9-9--9-9---9--9---9-9-9---11-11-11
---3-3----5--5--5----------7--7--7--7---7--7----7-7-7---7-7-7----3--3---5-5-5-5---7-7--7-7---7--7---7-7-7----99--9

---5-5----7--7--7----------2---------2-------2-------------2----2------2-------2--------2-/-------------------------------------
---3-3----5--5--5----------2---------3---2---2-------2----3----2------3---2---2----2--3-/------------------------------------
---------------------------------------------3-----------3---------------------3---------3------------------------------------------

--/---9--9----5--5----3--3---2--2--^-------3-3---2-2---------- 2-2---------------------------------------------------------------
--/---7--7----7--7----5--5---4--4--^-------5-5---4-4----2--2--2-2--------------------------------------------------------------
--------------------------------------------------------------4--4--------------------------------------------------------------------
Repeat 3 more times

--------9---9---9-9-9-9---4---5---7--7--7-7-7-7---4--5---9---9---9-9-9-9----4---5----7---7--7-7-7-7--7-7---------------
--------7---7---7-7-7-7---2---3---5--5--5-5-5-5---2--3---7---7---7-7-7-7----2---3----5---5--5-5-5-5--5-5---------------
Repeat 1 more time

-----2--2----4--4---5--5---7--7----2--2----4--4----5--5---7--7------2--2----4--4----5--5---7--7-----2--2----4--4----5--5---7--7--
-----2--2----2--2---3--3---5--5----2--2----2--2----3--3---5--5------2--2----2--2----3--3---5--5-----2--2----2--2----3--3---5--5--

-----9--9----5--7----3--3---2--2--^-------3-3---2-2---------- 2-2---------------------------------------------------------------
-----7--7----5--5----5--5---4--4--^-------5-5---4-4----2--2--2-2--------------------------------------------------------------
--------------------------------------------------------------4--4--------------------------------------------------------------------
Repeat 9 more times


---------5--7--8--5----7--8--9--7----9--11-12--9----10--7--8-------------------------------------------------------------------
Repeat 3 more times

------2--2--2--2--4---3--3--2--3--4-----3--3--3---------3--5--3-----------------------------------------------------------------
------2--2--2--2--2---3--3--2--3--2-----3--3--3---5-- -3--3--3----5------------------------------------------------------------
--------------------------------------------------------3-----------------3------------------------------------------------------------





Comments


Popular Iron Maiden tabs & chords
Quest For Fire Bass Tabs
The Duellists Bass Tabs
The Loneliness Of The Long Distance Runn 1 Bass Tabs
Dance Of Death Chords
Another Life Tabs
Blood Brothers 1 Tabs
Face In The Sand Tabs
Futureal (Solo) Tabs
MontséGur Tabs
Out Of The Shadows Intro Tabs


Song lyrics



↑ Back to top | Tablatures and chords are parodies/interpretations of the original songs. You may use it for private study, scholarship, research or language learning purposes only
© 2014 AZChords.com Contact us | Privacy policy | DMCA | Add/correct tabs | Request tabs | Top 50 tabs