>
 >
Paschendale 2

Paschendale 2 Bass Tabs

Iron Maiden - Paschendale 2 chords, tabs, tablatures, lyrics

Guitar lessons | Add/correct | Request | Top 50 tabs Artists:  A B C D E F G H I J K L M N O P Q R S T U V W X Y Z 0-9

Paschendale 2 Bass Tabs – Iron Maiden

CD, Sheet music, Poster

Do you like Paschendale 2? Share with your friends now
Bass TabsBass Tabs v2ChordsTabsTabs v2Tabs v3Tabs v4Tabs v5Ukulele
0:17
G|-------------------------------------------------------------------|
D|o-10----9-----7-------------------7-------------------------------o|
A|o-------------------10------------------10----9-----7-------------o|
E|-------------------------------------------------------------------|
    1 + 2 + 3 + 4 + 1 + 2 + 3 + 4 + 1 + 2 + 3 + 4 + 1 + 2 + 3 + 4 +

G|-----------------------------------------------------------------|
D|-2-2---0-0-------------------------------------------------------|
A|-------------3-3---2-2-----------3-3---2-2---0-0-----------------|
E|---------------------------------------------------0-0-----------|
   1 + 2 + 3 + 4 + 1 + 2 + 3 + 4 + 1 + 2 + 3 + 4 + 1 + 2 + 3 + 4 +

G|-----------------------------------------------------------------|
D|-2-2---0-0-------------------------------------------------------|
A|-------------3-3---2-2-----------3-3---5-5---5-5---7-7-----------|
E|-----------------------------------------------------------------|
   1 + 2 + 3 + 4 + 1 + 2 + 3 + 4 + 1 + 2 + 3 + 4 + 1 + 2 + 3 + 4 +

Rest

0:50
G|-------------------------------------------------------------------|
D|o-10----9-----7-------------------7-------------------------------o|
A|o-------------------10------------------10----9-----7-------------o|
E|-------------------------------------------------------------------|
    1 + 2 + 3 + 4 + 1 + 2 + 3 + 4 + 1 + 2 + 3 + 4 + 1 + 2 + 3 + 4 +

G|-------------------------------------------------------------------|
D|o-----------------------------------------------------------------o|
A|o-3-3---2-2---0-0-----------------0-0-----------------------------o|
E|--------------------3-3-----------------3-3---2-2---0-0------------|
    1 + 2 + 3 + 4 + 1 + 2 + 3 + 4 + 1 + 2 + 3 + 4 + 1 + 2 + 3 + 4 +

1:12
G|-----------------------------------------------------------------|
D|-----------------------------------------------------------------|
A|-5h7-7---7---5---5h7-7---7---------7-7-7-7---3---3h5-5---5-------|
E|-----------------------------------------------------------------|
   1 + 2 + 3 + 4 + 1 + 2 + 3 + 4 + 1 + 2 + 3 + 4 + 1 + 2 + 3 + 4 +

G|-----------------------------------------------------------------|
D|-----------------------------------5-5-5-5-----------------------|
A|-5h7-7-7-7---5-5-5-7-7---7-------------------3-3-3-5-5---5-------|
E|-----------------------------------------------------------------|
   1 + 2 + 3 + 4 + 1 + 2 + 3 + 4 + 1 + 2 + 3 + 4 + 1 + 2 + 3 + 4 +

G|-----------------------------------------------------------------|
D|-----------------------------------------------------------------|
A|-5h7-7-7-7---5-5-5-7-7---7---------7-7-7-7---3-3-3-5-5---5-------|
E|-----------------------------------------------------------------|
   1 + 2 + 3 + 4 + 1 + 2 + 3 + 4 + 1 + 2 + 3 + 4 + 1 + 2 + 3 + 4 +

G|-----------------------------------------------------------------|
D|-----------------------------------5-5-5-5-----------------------|
A|-5h7-7-7-7---5-5-5-7-7---7---------------------------------------|
E|---------------------------------------------3-3-3-5-5---5-------|
   1 + 2 + 3 + 4 + 1 + 2 + 3 + 4 + 1 + 2 + 3 + 4 + 1 + 2 + 3 + 4 +

1:34
G|-------------------------------------------------------------------|
D|o-----------------------------------------------------------------o|
A|o---------------------3-------------------------------------5-----o|
E|--0-------------------------3-----0-------------------3------------|
    1 + 2 + 3 + 4 + 1 + 2 + 3 + 4 + 1 + 2 + 3 + 4 + 1 + 2 + 3 + 4 +

1:46
G|--5-5---4-4--------------------------------------------------------|
D|o-------------7-7---5-5---5-5-5---7-7---5-5---4-4-----------------o|
A|o---------------------------------------------------7-7---7-7-7---o|
E|-------------------------------------------------------------------|
    1 + 2 + 3 + 4 + 1 + 2 + 3 + 4 + 1 + 2 + 3 + 4 + 1 + 2 + 3 + 4 +

G|-------------------------------------------------------------------|
D|o-----------------------------------------------------------------o|
A|o-3-3---2-2---0-0-----------------0-0-----------------------------o|
E|--------------------3-3-----------------3-3---2-2---0-0------------|
    1 + 2 + 3 + 4 + 1 + 2 + 3 + 4 + 1 + 2 + 3 + 4 + 1 + 2 + 3 + 4 +

2:06
G|------------------------------------------------------------------|
D|o-------------------------5---------------------------------------|
A|o-7-------7-----7-7---7-------3---5-------5-----5-5---5---2---5---|
E|------------------------------------------------------------------|
    1 + 2 + 3 + 4 + 1 + 2 + 3 + 4 + 1 + 2 + 3 + 4 + 1 + 2 + 3 + 4 +

G|------------------------------------------------------------------|
D|-------------------------5---------------------------------------o|
A|-7-------7-----7-7---7-------3---3-----5-5-----5-5---5---2---5---o|
E|------------------------------------------------------------------|
   1 + 2 + 3 + 4 + 1 + 2 + 3 + 4 + 1 + 2 + 3 + 4 + 1 + 2 + 3 + 4 +

2:27
G|-----------------------------------------------------------------|
D|-----------------------------------------------------------------|
A|-0-------0---0---2-------2---2---3-------3---3---5-------5-7-5-3-|
E|-----------------------------------------------------------------|
   1 + 2 + 3 + 4 + 1 + 2 + 3 + 4 + 1 + 2 + 3 + 4 + 1 + 2 + 3 + 4 +

G|-----------------------------------------------------------------|
D|-----------------------------------------------------------------|
A|-0-------0---0---2-------2---2---3-------3---3---5----5----5-----|
E|-----------------------------------------------------------------|
   1 + 2 + 3 + 4 + 1 + 2 + 3 + 4 + 1 + 2 + 3 + 4 + 1 + 2 + 3 + 4 +

G|-----------------------------------------------------------------|
D|-----------------------------------------------------------------|
A|-0-------0---0---2-------2---2---3-------3---3---5----3----2-----|
E|-----------------------------------------------------------------|
   1 + 2 + 3 + 4 + 1 + 2 + 3 + 4 + 1 + 2 + 3 + 4 + 1 + 2 + 3 + 4 +

G|-----------------------------------------------------------------|
D|-----------------------------------------------------------------|
A|-0-------0-------2---2---2---2---3-------3---3---5---------------|
E|-------------3---------------------------------------------------|
   1 + 2 + 3 + 4 + 1 + 2 + 3 + 4 + 1 + 2 + 3 + 4 + 1 + 2 + 3 + 4 +

2:48
G|-5-5---4-4-------------------------------------------------------|
D|-------------7-7---5-5---5-5-5---7-7---5-5---4-4-----------------|
A|---------------------------------------------------7-7---7-7-7---|
E|-----------------------------------------------------------------|
   1 + 2 + 3 + 4 + 1 + 2 + 3 + 4 + 1 + 2 + 3 + 4 + 1 + 2 + 3 + 4 +

G|--5-5---4-4--------------------------------------------------------|
D|o-------------7-7---5-5-----------7-7---5-5---4-4-----------------o|
A|o---------------------------------------------------7-7-----------o|
E|-------------------------------------------------------------------|
    1 + 2 + 3 + 4 + 1 + 2 + 3 + 4 + 1 + 2 + 3 + 4 + 1 + 2 + 3 + 4 +

G|-------------------------------------------------------------------|
D|o-----------------------------------------------------------------o|
A|o-3-3---2-2---0-0-----------------0-0-----------------------------o|
E|--------------------3-3-----------------3-3---2-2---0-0------------|
    1 + 2 + 3 + 4 + 1 + 2 + 3 + 4 + 1 + 2 + 3 + 4 + 1 + 2 + 3 + 4 +

Rest

3:25
G|-------------------------------------------------------------------|
D|o-----------------------------------------------------------------o|
A|o-----------------------0---------2-----3---------2-----0---------o|x3
E|--0-----2---------3-------------------------------------------3-2--|
    1 + 2 + 3 + 4 + 1 + 2 + 3 + 4 + 1 + 2 + 3 + 4 + 1 + 2 + 3 + 4 +

G|-------------------------------------------------------------------|
D|o-----------------------------------------------------------------o|
A|o-------0-2-------3-2-0-3-2---------3-2-0-----0-2-0-------5-------o|x4
E|--0-2-3-----------------------------------3---------3-2-0----------|
    1 + 2 + 3 + 4 + 1 + 2 + 3 + 4 + 1 + 2 + 3 + 4 + 1 + 2 + 3 + 4 +

4:02
G|-----------------------------------------------------------------|
D|-----------------------------------------------------------------|
A|-5-7-7-7-7---3---3h5-5---5---------5-5-5-5---2---2---3---3-------|
E|-----------------------------------------------------------------|
   1 + 2 + 3 + 4 + 1 + 2 + 3 + 4 + 1 + 2 + 3 + 4 + 1 + 2 + 3 + 4 +

G|-----------------------------------------------------------------|
D|-----------------------------------------------------------------|
A|---7-7-7-7---3---3h5-5---5---------5-5-5-5---2---2h3-3---3-------|
E|-------------------------------------------------------------3-2-|
   1 + 2 + 3 + 4 + 1 + 2 + 3 + 4 + 1 + 2 + 3 + 4 + 1 + 2 + 3 + 4 +

G|-----------------------------------------------------------------|
D|-----------------------------------------------------------------|
A|---7-7-7-7---3-3-3-5-5---5---------5-5-5-5---2---2h3-3---3-------|
E|-----------------------------------------------------------------|
   1 + 2 + 3 + 4 + 1 + 2 + 3 + 4 + 1 + 2 + 3 + 4 + 1 + 2 + 3 + 4 +

G|-----------------------------------------------------------------|
D|-----------------------------------------------------------------|
A|---7-7-7-7---3---3h5-5---5---------5-5-5-5---2---2h3-3---3-------|
E|-------------------------------------------------------------3-2-|
   1 + 2 + 3 + 4 + 1 + 2 + 3 + 4 + 1 + 2 + 3 + 4 + 1 + 2 + 3 + 4 +

G|-------------------------------------------------------------------|-----|
D|o-----------------------------------------------------------------o|-----|
A|o---------------------3-------------------------------------5-----o|-----|
E|--0-------------------------3-----0-------------------3------------|-0---|
    1 + 2 + 3 + 4 + 1 + 2 + 3 + 4 + 1 + 2 + 3 + 4 + 1 + 2 + 3 + 4 +

Rest

4:48
G|-----------------------------------------------------------------|
D|-9-----9-------9---------5---5---7-----7-------7---------7---7---|
A|---7-7---7-7-7---7-7-7-7-----------5-5---5-5-5---5-5-5-5---------|
E|-----------------------------------------------------------------|
   1 + 2 + 3 + 4 + 1 + 2 + 3 + 4 + 1 + 2 + 3 + 4 + 1 + 2 + 3 + 4 +

G|------------------------------------------------------------------|
D|o-9-----9-----9-----9-----5---5---7-----7-----7-----7-----5---5---|
A|o---7-7---7-7---7-7---7-7-----------5-5---5-5---5-5---5-5---------|
E|------------------------------------------------------------------|
    1 + 2 + 3 + 4 + 1 + 2 + 3 + 4 + 1 + 2 + 3 + 4 + 1 + 2 + 3 + 4 +

G|-----------------------------------------------------------------|
D|-9-----9-----9-----9-----5---5---7-----7-----7-----7-----7---7--o|
A|---7-7---7-7---7-7---7-7-----------5-5---5-5---5-5---5-5--------o|
E|-----------------------------------------------------------------|
   1 + 2 + 3 + 4 + 1 + 2 + 3 + 4 + 1 + 2 + 3 + 4 + 1 + 2 + 3 + 4 +

G|------------------------------------------------------------------|
D|o-6-----6-----6-----6-----2---2---4-----4-----4-----4-----4---4--o|
A|o---4-4---4-4---4-4---4-4-----------2-2---2-2---2-2---2-2--------o|x4
E|------------------------------------------------------------------|
    1 + 2 + 3 + 4 + 1 + 2 + 3 + 4 + 1 + 2 + 3 + 4 + 1 + 2 + 3 + 4 +

G|------------------------------------------------------------------|
D|o----------------------------------------------------------------o|
A|o-6-----6-----6-----6-----2---2---4-----4-----4-----4-----4---4--o|x4
E|----4-4---4-4---4-4---4-4-----------2-2---2-2---2-2---2-2---------|
    1 + 2 + 3 + 4 + 1 + 2 + 3 + 4 + 1 + 2 + 3 + 4 + 1 + 2 + 3 + 4 +

G|------------------------------------------------------------------|
D|o-7-----7-----7-----7-----3---3---5-----5-----5-----5-----5---5--o|
A|o---5-5---5-5---5-5---5-5-----------3-3---3-3---3-3---3-3--------o|x4
E|------------------------------------------------------------------|
    1 + 2 + 3 + 4 + 1 + 2 + 3 + 4 + 1 + 2 + 3 + 4 + 1 + 2 + 3 + 4 +

6:14
G|-5-5---4-4-------------------------------------------------------|
D|-------------7-7---5-5---5-5-5---7-7---5-5---4-4-----------------|
A|---------------------------------------------------7-7---7-7-7---|
E|-----------------------------------------------------------------|
   1 + 2 + 3 + 4 + 1 + 2 + 3 + 4 + 1 + 2 + 3 + 4 + 1 + 2 + 3 + 4 +

G|-5-5---4-4-------------------------------------------------------|
D|-------------7-7---5-5-----------7-7---5-5---4-4-----------------|
A|---------------------------------------------------7-7-----------|
E|-----------------------------------------------------------------|
   1 + 2 + 3 + 4 + 1 + 2 + 3 + 4 + 1 + 2 + 3 + 4 + 1 + 2 + 3 + 4 +

G|-------------------------------------------------------------------|
D|o-----------------------------------------------------------------o|
A|o-3-3---2-2---0-0-----------------0-0-----------------------------o|x4
E|--------------------3-3---3-3-3---------3-3---2-2---0-0------------|
    1 + 2 + 3 + 4 + 1 + 2 + 3 + 4 + 1 + 2 + 3 + 4 + 1 + 2 + 3 + 4 +

6:45
G|-----------------------------------------------------------------|
D|-------------------------5---------------------------------------|
A|-7-------7-----7-7---7-------3---5-------5-----5-5---5---2---5---|
E|-----------------------------------------------------------------|
   1 + 2 + 3 + 4 + 1 + 2 + 3 + 4 + 1 + 2 + 3 + 4 + 1 + 2 + 3 + 4 +

G|-----------------------------------------------------------------|
D|-------------------------5---------------------------------------|
A|-7-----7-7-----7-7---7-------3---3-----5-5-----5-5-------5---5---|
E|-----------------------------------------------------------------|
   1 + 2 + 3 + 4 + 1 + 2 + 3 + 4 + 1 + 2 + 3 + 4 + 1 + 2 + 3 + 4 +

G|-----------------------------------------------------------------|
D|-------------------------5---------------------------------------|
A|-7---7-7-7---7-7-7---7-7-----3---5---5-5-5---5-5-5---5-5-2---5---|
E|-----------------------------------------------------------------|
   1 + 2 + 3 + 4 + 1 + 2 + 3 + 4 + 1 + 2 + 3 + 4 + 1 + 2 + 3 + 4 +

G|-----------------------------------------------------------------|
D|-------------------------5---------------------------------------|
A|-7---7-7-7---7-7-7---7-7-----3---3-----5-5---5-5-5-------5---5---|
E|-----------------------------------------------------------------|
   1 + 2 + 3 + 4 + 1 + 2 + 3 + 4 + 1 + 2 + 3 + 4 + 1 + 2 + 3 + 4 +

G|-----------------------------------------------------------------|
D|-------------------------5---------------------------------------|
A|-7---7-7-7---7-7-7---7-7-----3---5---5-5-5---5-5-5---5-5-2---5---|
E|-----------------------------------------------------------------|
   1 + 2 + 3 + 4 + 1 + 2 + 3 + 4 + 1 + 2 + 3 + 4 + 1 + 2 + 3 + 4 +

G|-----------------------------------------------------------------|
D|-------------------------5---------------------------------------|
A|-7---7-7-7---7-7-7---7-7-----3---3-----5-5---5-5-5---5-5-5-5-5-5-|
E|-----------------------------------------------------------------|
   1 + 2 + 3 + 4 + 1 + 2 + 3 + 4 + 1 + 2 + 3 + 4 + 1 + 2 + 3 + 4 +

G|-----------------------------------------------------------------|
D|-------------------------5---------------------------------------|
A|-7---7-7-7---7-7-7---7-7-----3---5---5-5-5---5-5-5---5-5-2---5---|
E|-----------------------------------------------------------------|
   1 + 2 + 3 + 4 + 1 + 2 + 3 + 4 + 1 + 2 + 3 + 4 + 1 + 2 + 3 + 4 +

G|-----------------------------------------------------------------|
D|-------------------------5---------------------------------------|
A|-7---7-7-7---7-7-7---7-7-----3---3-----5-5---5-5-5---5-5-5---5---|
E|-----------------------------------------------------------------|
   1 + 2 + 3 + 4 + 1 + 2 + 3 + 4 + 1 + 2 + 3 + 4 + 1 + 2 + 3 + 4 +

G|-------------------------------------------------------------------|-----|
D|o-----------------------------------------------------------------o|-----|
A|o---------------------3-------------------------------------5-----o|-----|
E|--0-------------------------3-----0-------------------3------------|-0---|
    1 + 2 + 3 + 4 + 1 + 2 + 3 + 4 + 1 + 2 + 3 + 4 + 1 + 2 + 3 + 4 +

Rest

8:00
G|-------------------------------------------------------------------|
D|o-10----9-----7-------------------7-------------------------------o|
A|o-------------------10------------------10----9-----7-------------o|
E|-------------------------------------------------------------------|
    1 + 2 + 3 + 4 + 1 + 2 + 3 + 4 + 1 + 2 + 3 + 4 + 1 + 2 + 3 + 4 +





Comments


Popular Iron Maiden tabs & chords
For The Greater Good Of God Bass Tabs
Invaders 2 Bass Tabs
Murders In The Rue Morgue 3 Bass Tabs
Bring Your Daughter...To The Slaughter Tabs
Caught Somewhere In Time 3 Tabs
Childhood's End Tabs
Junita Tabs
The Nomad 1 Tabs
The Prophecy Tabs
Weekend Warrior Tabs


Song lyrics



↑ Back to top | Tablatures and chords are parodies/interpretations of the original songs. You may use it for private study, scholarship, research or language learning purposes only
© 2014 AZChords.com Contact us | Privacy policy | DMCA | Add/correct tabs | Request tabs | Top 50 tabs