>
 >
Dream Of Mirrors 2

Dream Of Mirrors 2 Guitar Tabs

Iron Maiden - Dream Of Mirrors 2 chords, tabs, tablatures, lyrics

Guitar lessons | Add/correct | Request | Top 50 tabs Artists:  A B C D E F G H I J K L M N O P Q R S T U V W X Y Z 0-9

Dream Of Mirrors 2 Guitar Tabs – Iron Maiden

CD, Sheet music, Poster

Do you like Dream Of Mirrors 2? Share with your friends now
Bass TabsBass Tabs v2Bass Tabs v3TabsTabs v2Tabs v3
IRON MAIDEN

                                 Dream of mirrors
                                  (Gers/Harris)

Standard tunning


-the chords are at the bottom of the tab
-tab explanation at the end

 Intro:
|----------------------------------------------------------------|
|----------------------------------------------------------------|
|.---------5-4------------------5-4-----7~-----------5-4---------|
|.7--7---7------5------7--7---7------5------7--7---7------5------|
|-7--7-------------5~--7--7-----------------7--7-------------5~--|
|-5--5-----------------5--5-----------------5--5-----------------|


|--------------------------|-------------------------------------------------------|
|--------------------------|-------------------------------------------------------|
|------------------/5--4--.|-2------9h10p9p7-9~--.------9----9h10p9p7-9-10-/(12)~--|
|------------3--2---------.|-2-------------------7--7-7----------------------------|
|3--2--3--2----------------|-0-----------------------------------------------------|
|--------------------------|-------------------------------------------------------|
 *ritardando 2nd time

|---------------------------------------------------------|
|---------------------------------------------------------|
|.------7----7h8p7p5-7~--.------9----9h10p9p7-9-10-/(12)--|
|5--5-5------------------7--7-7---------------------------|
|---------------------------------------------------------|
|---------------------------------------------------------|


   A (only at 5th & 6th times and upstroked)
   /                                                           8x
|----------------------------------------------------------------|
|----------------------------------------------------------------|
|.-.------9h10p9p7-.------7h9p7p5-.------5h7p5p4-.------4h5p4p0-.|
|.-7--7-7----------7--7-7---------7--7-7---------7--7-7---------.|
|----------------------------------------------------------------|
|----------------------------------------------------------------|

                                3x
|---------------------------------|--------------------------------|
|--------------------3-------3----|--------------------------------|
|------------------2---2---2---2-.|--------------------------------|
|----3-------3---0-------0-------.|----3---3---3-------5---5---5---|
|--3---3---3---3------------------|--3---3---3---3---5---5---5---5-|
|1-------1------------------------|1---------------3---------------|

                              3x
|-------------------------------|-----------------------------|
|---------1---0-----------------|--------1---0----------------|
|.----2--------------5---------.|----2------------------------|
|.--2---2---2------5--------5--.|--2---2---2--------3------5--|
|-0--------------3--------5-----|0----------------3------5----|
|----------------------3--------|---------------1-----3-------|


   A (only at 5th upstroked)      A (only at 6th upstroked)
   /                              /                           10x
|----------------------------------------------------------------|
|----------------------------------------------------------------|
|.-.------9h10p9p7-.------7h9p7p5-.------5h7p5p4-.------4h5p4p0-.|
|.-7--7-7----------7--7-7---------7--7-7---------7--7-7---------.|
|----------------------------------------------------------------|
|----------------------------------------------------------------|

                                3x
|---------------------------------|--------------------------------|
|---------------------------------|--------------------------------|
|----------------7-7-7-7-7-7-7-7-.|--------------------------------|
|3-3-3-3-3-3-3-3-7-7-7-7-7-7-7-7-.|3-3-3-3-3-3-3-3-5-5-5-5-5-5-5-5-|
|3-3-3-3-3-3-3-3-5-5-5-5-5-5-5-5--|3-3-3-3-3-3-3-3-5-5-5-5-5-5-5-5-|
|1-1-1-1-1-1-1-1------------------|1-1-1-1-1-1-1-1-3-3-3-3-3-3-3-3-|

 Chorus:                         3x
|---------------------------------|--------------------------------|
|---------------------------------|--------------------------------|
|.2-2----2-2----2----------------.|--------------------------------|
|.2-2----2-2----2--3------5------.|3-3-3-3-3-3-3-3-5-5-5-5-5-5-5-5-|
|-0-0----0-0----0--3------5-------|3-3-3-3-3-3-3-3-5-5-5-5-5-5-5-5-|
|------------------1------3-------|1-1-1-1-1-1-1-1-3-3-3-3-3-3-3-3-|

                                3x
|---------------------------------|--------------------------------|
|---------------------------------|--------------------------------|
|.2-2----2-2----2----------------.|--------------------------------|
|.2-2----2-2----2--3------5------.|3-3-3-3-3-3-3-3-5-5-5-5-5-5-5-5-|
|-0-0----0-0----0--3------5-------|3-3-3-3-3-3-3-3-5-5-5-5-5-5-5-5-|
|------------------1------3-------|1-1-1-1-1-1-1-1-3-3-3-3-3-3-3-3-|

                              3x
|-------------------------------|-----------------------------|
|---------1---0-----------------|--------1---0----------------|
|.----2--------------5---------.|----2------------------------|
|.--2---2---2------5--------5--.|--2---2---2--------3------5--|
|-0--------------3--------5-----|0----------------3------5----|
|----------------------3--------|---------------1-----3-------|


  3rd time drums enter
                                                              10x
|----------------------------------------------------------------|
|----------------------------------------------------------------|
|.-.------9h10p9p7-.------7h9p7p5-.------5h7p5p4-.------4h5p4p0-.|
|.-7--7-7----------7--7-7---------7--7-7---------7--7-7---------.|
|----------------------------------------------------------------|
|----------------------------------------------------------------|

                                3x
|---------------------------------|--------------------------------|
|---------------------------------|--------------------------------|
|----------------7-7-7-7-7-7-7-7-.|--------------------------------|
|3-3-3-3-3-3-3-3-7-7-7-7-7-7-7-7-.|3-3-3-3-3-3-3-3-5-5-5-5-5-5-5-5-|
|3-3-3-3-3-3-3-3-5-5-5-5-5-5-5-5--|3-3-3-3-3-3-3-3-5-5-5-5-5-5-5-5-|
|1-1-1-1-1-1-1-1------------------|1-1-1-1-1-1-1-1-3-3-3-3-3-3-3-3-|

 Chorus:                         3x
|---------------------------------|--------------------------------|
|---------------------------------|--------------------------------|
|.2-2----2-2----2----------------.|--------------------------------|
|.2-2----2-2----2--3------5------.|3-3-3-3-3-3-3-3-5-5-5-5-5-5-5-5-|
|-0-0----0-0----0--3------5-------|3-3-3-3-3-3-3-3-5-5-5-5-5-5-5-5-|
|------------------1------3-------|1-1-1-1-1-1-1-1-3-3-3-3-3-3-3-3-|


                                3x
|---------------------------------|--------------------------------|
|---------------------------------|--------------------------------|
|.2-2----2-2----2----------------.|--------------------------------|
|.2-2----2-2----2--3------5------.|3-3-3-3-3-3-3-3-5-5-5-5-5-5-5-5-|
|-0-0----0-0----0--3------5-------|3-3-3-3-3-3-3-3-5-5-5-5-5-5-5-5-|
|------------------1------3-------|1-1-1-1-1-1-1-1-3-3-3-3-3-3-3-3-|


|--------------------------------------------------|
|--10h12p10-12-12--10---10-10h12p10-12-12--10---10-|
|.--------------------9-----------------------9----|
|.-------------------------------------------------|
|--------------------------------------------------|
|--------------------------------------------------|
|
|--------------------------------------------------|
|--------------------------------------------------|
|.-------------------------------------------------|
|.-7-h9-p7--9--9---7----7--7-h9-p7--9--9---7----7--|
|---------------------7-----------------------7----|
|--------------------------------------------------|


|------------------------------------------|
|-8h10p8-10-10--8---8-8h10p8-10-10--8---8--|
|-----------------7-------------------7---.|
|-----------------------------------------.|
|------------------------------------------|
|------------------------------------------|
|
|------------------------------------------|
|------------------------------------------|
|-----------------------------------------.|
|-5h7-p5-7--7---5---5-5h7-p5-7--7---5---5-.|
|-----------------5-------------------5----|
|------------------------------------------|


|----------------------------------------------------|
|----------------------------------------------------|
|----------------------------------------------------|
|7--7-7-7--7-7-7--7-7-7--7-7-7--7-7-7--7-7-7--7-7-7--|
|7--7-7-7--7-7-7--7-7-7--7-7-7--7-7-7--7-7-7--7-7-7--|
|5--5-5-5--5-5-5--5-5-5--5-5-5--5-5-5--5-5-5--5-5-5--|


|----------------------------------------------------|
|----------------------------------------------------|
|----------------------------------------------------|
|5--5-5-5--5-5-5--5-5-5--5-5-5--5-5-5--5-5-5--5-5-5--|
|5--5-5-5--5-5-5--5-5-5--5-5-5--5-5-5--5-5-5--5-5-5--|
|3--3-3-3--3-3-3--3-3-3--3-3-3--3-3-3--3-3-3--3-3-3--|


|----------------------------------------------------|
|----------------------------------------------------|
|----------------------------------------------------|
|7--7-7-7--7-7-7--7-7-7--7-7-7--7-7-7--7-7-7--7-7-7--|
|7--7-7-7--7-7-7--7-7-7--7-7-7--7-7-7--7-7-7--7-7-7--|
|5--5-5-5--5-5-5--5-5-5--5-5-5--5-5-5--5-5-5--5-5-5--|


|------------------------------------------------|
|------------------------------------------------|
|------------------------------------------------|
|3--3-3-3--3-3-3--3-3-3--5--5-5-5--5-5-5--5-5-5--|
|3--3-3-3--3-3-3--3-3-3--5--5-5-5--5-5-5--5-5-5--|
|1--1-1-1--1-1-1--1-1-1--3--3-3-3--3-3-3--3-3-3--|


|-------------------------------------------------|
|-10h12p10-12-12--10---10-10h12p10-12-12--10---10-|
|--------------------9-----------------------9----|
|-------------------------------------------------|
|-------------------------------------------------|
|-------------------------------------------------|
|
|-------------------------------------------------|
|-------------------------------------------------|
|-------------------------------------------------|
|-7-h9-p7--9--9---7----7--7-h9-p7--9--9---7----7--|
|--------------------7-----------------------7----|
|-------------------------------------------------|


|-----------------------------------------|
|-8h10p8-10-10--8---8-8h10p8-10-10--8---8-|
|-----------------7-------------------7---|
|-----------------------------------------|
|-----------------------------------------|
|-----------------------------------------|
|
|-----------------------------------------|
|-----------------------------------------|
|-----------------------------------------|
|-5h7-p5-7--7---5---5-5h7-p5-7--7---5---5-|
|-----------------5-------------------5---|
|-----------------------------------------|


|----------------------------------------------------|
|----------------------------------------------------|
|----------------------------------------------------|
|7--7-7-7--7-7-7--7-7-7--7-7-7--7-7-7--7-7-7--7-7-7--|
|7--7-7-7--7-7-7--7-7-7--7-7-7--7-7-7--7-7-7--7-7-7--|
|5--5-5-5--5-5-5--5-5-5--5-5-5--5-5-5--5-5-5--5-5-5--|


|----------------------------------------------------|
|----------------------------------------------------|
|----------------------------------------------------|
|5--5-5-5--5-5-5--5-5-5--5-5-5--5-5-5--5-5-5--5-5-5--|
|5--5-5-5--5-5-5--5-5-5--5-5-5--5-5-5--5-5-5--5-5-5--|
|3--3-3-3--3-3-3--3-3-3--3-3-3--3-3-3--3-3-3--3-3-3--|


|----------------------------------------------------|
|----------------------------------------------------|
|----------------------------------------------------|
|7--7-7-7--7-7-7--7-7-7--7-7-7--7-7-7--7-7-7--7-7-7--|
|7--7-7-7--7-7-7--7-7-7--7-7-7--7-7-7--7-7-7--7-7-7--|
|5--5-5-5--5-5-5--5-5-5--5-5-5--5-5-5--5-5-5--5-5-5--|


|------------------------------------------------|
|------------------------------------------------|
|------------------------------------------------|
|3--3-3-3--3-3-3--3-3-3--5--5-5-5--5-5-5--5-5-5--|
|3--3-3-3--3-3-3--3-3-3--5--5-5-5--5-5-5--5-5-5--|
|1--1-1-1--1-1-1--1-1-1--3--3-3-3--3-3-3--3-3-3--|


|--------------------------------------------------|
|--10h12p10-12-12--10---10-10h12p10-12-12--10---10-|
|.--------------------9-----------------------9----|
|.-------------------------------------------------|
|--------------------------------------------------|
|--------------------------------------------------|
|
|--------------------------------------------------|
|--------------------------------------------------|
|.-------------------------------------------------|
|.-7-h9-p7--9--9---7----7--7-h9-p7--9--9---7----7--|
|---------------------7-----------------------7----|
|--------------------------------------------------|


|------------------------------------------|
|-8h10p8-10-10--8---8-8h10p8-10-10--8---8--|
|-----------------7-------------------7---.|
|-----------------------------------------.|
|------------------------------------------|
|------------------------------------------|
|
|------------------------------------------|
|------------------------------------------|
|-----------------------------------------.|
|-5h7-p5-7--7---5---5-5h7-p5-7--7---5---5-.|
|-----------------5-------------------5----|
|------------------------------------------|


 Fast Chorus:
|-------------------------------------------------------------------|
|-------------------------------------------------------------------|
|.2----------------2----------------2------------------------------.|
|.2------3----5----2------3----5----2------3----5----3------5------.|
|-0------3----5----0------3----5----0------3----5----3------5-------|
|--------1----3-----------1----3-----------1----3----1------3-------|

 with Solo Rhythm
|-------------------------------------------------------------------|
|-------------------------------------------------------------------|
|.----------9-9-9--7-7-7--5-5-5--4-----------9-9-9--7-7-7--5-5-5--4-|
|.5h7p5-7~-------------------------5h7p5-7~-------------------------|
|-------------------------------------------------------------------|
|-------------------------------------------------------------------|
 *2nd time with ohh, ohh

|-----------------------------------------------------|
|-----------------------------------------------------|
|-----------9-9-9--7-7-7--5-5-5--4-------------------.|
|-5h7p5-7~-------------------------5h7p5-7~--7p5-9~--.|
|-----------------------------------------------------|
|-----------------------------------------------------|


 Solo Rhythm:
|-----------------------------------------------|
|-----------------------------------------------|
|.2-----------------5--------------------------.|
|.2--------3--------5--------3--------5--------.|
|-0--------3--------3--------3--------5---------|
|----------1-----------------1--------3---------|

 with Solo Rhythm
|------------------------------------------------------------------|
|------------------------------------------------------------------|
|----------9-9-9--7-7-7--5-5-5--4-----------9-9-9--7-7-7--5-5-5--4-|
|5h7p5-7~-------------------------5h7p5-7~-------------------------|
|------------------------------------------------------------------|
|------------------------------------------------------------------|


|----------------------------------------------------|
|----------------------------------------------------|
|-----------9-9-9--7-7-7--5-5-5--4-------------------|
|-5h7p5-7~-------------------------5h7p5-7~--7p5-9~--|
|----------------------------------------------------|
|----------------------------------------------------|
|
|----------------------------------------------------|
|----------------------------------------------------|
|--------------------------------------------5p4-7~--|
|----------------------------------------------------|
|----------------------------------------------------|
|----------------------------------------------------|


|------------------------------------------------------------------|
|------------------------------------------------------------------|
|----------9-9-9--7-7-7--5-5-5--4-----------9-9-9--7-7-7--5-5-5--4-|
|5h7p5-7~-------------------------5h7p5-7~-------------------------|
|------------------------------------------------------------------|
|------------------------------------------------------------------|
|
|------------------------------------------------------------------|
|----------8-8-8--6-6-6--5-5-5--3-----------8-8-8--6-6-6--5-5-5--3-|
|4h5p4-5~-------------------------4h5p4-5~-------------------------|
|------------------------------------------------------------------|
|------------------------------------------------------------------|
|------------------------------------------------------------------|


|----------------------------------------------------|
|----------------------------------------------------|
|-----------9-9-9--7-7-7--5-5-5--4-------------------|
|-5h7p5-7~-------------------------5h7p5-7~--7p5-9~--|
|----------------------------------------------------|
|----------------------------------------------------|
|
|----------------------------------------------------|
|-----------8-8-8--6-6-6--5-5-5--3-------------------|
|-4h5p4-5~-------------------------4h5p4-5~--5p4-7~--|
|----------------------------------------------------|
|----------------------------------------------------|
|----------------------------------------------------|
|
|----------------------------------------------------|
|----------------------------------------------------|
|----------------------------------7h9p7-9~--9p7-10~-|
|----------------------------------------------------|
|----------------------------------------------------|
|----------------------------------------------------|


 Chorus:                        3x
|---------------------------------|--------------------------------|
|---------------------------------|--------------------------------|
|.2-2----2-2----2----------------.|--------------------------------|
|.2-2----2-2----2--3------5------.|3-3-3-3-3-3-3-3-5-5-5-5-5-5-5-5-|
|-0-0----0-0----0--3------5-------|3-3-3-3-3-3-3-3-5-5-5-5-5-5-5-5-|
|------------------1------3-------|1-1-1-1-1-1-1-1-3-3-3-3-3-3-3-3-|


 Chorus:                        3x
|---------------------------------|--------------------------------|
|---------------------------------|--------------------------------|
|.2-2----2-2----2----------------.|--------------------------------|
|.2-2----2-2----2--3------5------.|3-3-3-3-3-3-3-3-5-5-5-5-5-5-5-5-|
|-0-0----0-0----0--3------5-------|3-3-3-3-3-3-3-3-5-5-5-5-5-5-5-5-|
|------------------1------3-------|1-1-1-1-1-1-1-1-3-3-3-3-3-3-3-3-|


                              3x
|-------------------------------|-----------------------------|
|---------1---0-----------------|--------1---0----------------|
|.----2--------------5---------.|----2------------------------|
|.--2---2---2------5--------5--.|--2---2---2--------3------5--|
|-0--------------3--------5-----|0----------------3------5----|
|----------------------3--------|---------------1-----3-------|


 Ending:
|-------------------------------------------------------||
|-------------------------------------------------------||
|.-.-9h10p9p7-.-.-7----.-.-9h10p9p7-.-.-7---------------||
|7-7----------7-7------7-7----------7-7-----------------||
|-------------------------------------------------------||
|-------------------------------------------------------||
 *ritardando
                           END OF SONG

Chords:
  A
|-0-----------------------------------------------------|
|-1-----------------------------------------------------|
|-2-----------------------------------------------------|
|-2-----------------------------------------------------|
|-0-----------------------------------------------------|
|-------------------------------------------------------|

Tablature explanation:

/7 - slide from down to the note presented
\7 - slide from up to the note presented
5/7 - slide from the lower note to the higher note
7\5 - slide from the higher note to the lower





Comments


Popular Iron Maiden tabs & chords
Blood On The Worlds Hands 2 Bass Tabs
Brave New World 4 Bass Tabs
Dont Look To The Eyes Of A Stranger Bass Tabs
Mother Of Mercy Bass Tabs
No More Lies Bass Tabs
Running Free Intro 1 Bass Tabs
Fear Of The Dark 7 Tabs
Running Free Tabs
Sun And Steel Tabs
Two Am 1 Tabs


Song lyrics



↑ Back to top | Tablatures and chords are parodies/interpretations of the original songs. You may use it for private study, scholarship, research or language learning purposes only
© 2014 AZChords.com Contact us | Privacy policy | DMCA | Add/correct tabs | Request tabs | Top 50 tabs