>
 >
Dream Of Mirrors

Dream Of Mirrors Bass Tabs

Iron Maiden - Dream Of Mirrors chords, tabs, tablatures, lyrics

Guitar lessons | Add/correct | Request | Top 50 tabs Artists:  A B C D E F G H I J K L M N O P Q R S T U V W X Y Z 0-9

Dream Of Mirrors Bass Tabs – Iron Maiden

CD, Sheet music, Poster

Do you like Dream Of Mirrors? Share with your friends now
Bass TabsBass Tabs v2Bass Tabs v3TabsTabs v2Tabs v3
Iron Maiden: Dream Of Mirrors


Not 100% sure on tab, and on the time frames.
  (Used song from Brave New World album)

This is one of my favorite Iron Maiden Songs, fall asleep to it? Calming.


 ----------Intro----------

Time: 0:00-0:19
G|-----4-5-4-------------4-5-4----7--------4-5-4-----------------------|
D|-----------5-----------------5-----------------5---------------------|
A|-0-0---------5----0-0---------------0-0----------5/--15~14~----------|
E|---------------------------------------------------------------------|

G|-----4-5-4-------------4-5-4----7-------4-5-4------------------------|
D|-----------5-----------------5----------------5----------------15----|
A|-0-0---------5----0-0---------------0-0---------5/-15-14-15-14----14-|
E|---------------------------------------------------------------------|


Time: 0:19-0:29
G|---------------------------------------------------------------------|
D|---------------------------------------------------------------------|
A|--2-222-222-222-222-222-222-222-222-222-222-222-222-222-222-222-222--|
E|---------------------------------------------------------------------|


Time: 0:29-0:39
G|---------------------------------------------------------------------|
D|---------------------------------------------------------------------|
A|-----------------------------------0-000-000-000-000-000-000-000-000-|
E|-3-333-333-333-333-333-333-333-333-----------------------------------|

 
 ----------Verse 1----------

Time: 0:39-1:18
G|---------------------------------------------------------------------|
D|---------------------------------------------------------------------|
A|--000-000-000-000-000-000-000-000-000-000-000-000-000-000-000-000----| 
E|--------------------------------------------------(-Four-Times-)-----|


 ----------Verse 2----------

Time: 1:18-1:38
G|----------------------7---7---7-----------------------7---7---7------|
D|------3---3---3-----7---7---7---7-----3---3---3-----7---7---7---7----|
A|----3---3---3---3-5-----------------3---3---3---3-5------------------|
E|--1-------------------------------1----------------------------------|

G|----------------------7---7---7--------------------------------------|
D|------3---3---3-----7---7---7---7-----3---3---3-------5---5---5------|
A|----3---3---3---3-5-----------------3---3---3---3---5---5---5---5----|
E|--1-------------------------------1---------------3------------------|


 ----------Bridge----------

Time: 1:38-1:56
G|-------2---5---4-------5-----------2---5---4-------5-----------------|
D|-----2---2---2---2---5-------5---2---2---2---2---5-------5-----------|
A|---0---------------3-------5---0---------------3-------5-------------|
E|-------------------------3---------------------------3---------------|

G|-------2---5---4-------5-----------2---5---4-------------------------|
D|-----2---2---2---2---5-------5---2---2---2---2-----3-----5-----------|
A|---0---------------3-------5---0-----------------3-----5-------------|
E|-------------------------3---------------------1-----3---------------|

 ----------Verse 1----------

Time: 1:56-2:46
G|---------------------------------------------------------------------|
D|---------------------------------------------------------------------|
A|--000-000-000-000-000-000-000-000-000-000-000-000-000-000-000-000----| 
E|----------------------------------------(-Do-From-1:56-To-2:46-)-----|


 ----------Verse 3----------

Time: 2:46-3:05
G|---------------------------------------------------------------------|
D|---------------------------------------------------------------------|
A|------------------5-5-5-5-5-5-5-5-----------------5-5-5-5-5-5-5-5----|
E|--1-1-1-1-1-1-1-1-----------------1-1-1-1-1-1-1-1--------------------|

G|---------------------------------------------------------------------|
D|---------------------------------------------------------------------|
A|------------------5-5-5-5-5-5-5-5------------------------------------|
E|--1-1-1-1-1-1-1-1-----------------1-1-1-1-1-1-1-1-3-3-3-3-3-3-3-3----|


 ----------Chorus----------

Time: 3:05-3:43
G|---------------------------------------------------------------------|
D|---------------------------------------------------------------------|
A|---------------------------------------------------------------------|
E|--5-5-5-5-5-5-5-5--1-1-1--3--3-3-3-3--(-Three-Times-)----------------|

G|---------------------------------------------------------------------|
D|---------------------------------------------------------------------|
A|---------------------------------------------------------------------|
E|--1-1-1-1-1-1-1-1-3-3-3-3-3-3-3-3--(-Once-)--------------------------|

G|---------------------------------------------------------------------|
D|---------------------------------------------------------------------|
A|---------------------------------------------------------------------|
E|--5-5-5-5-5-5-5-5--1-1-1--3--3-3-3-3--(-Three-Times-)----------------|

G|---------------------------------------------------------------------|
D|---------------------------------------------------------------------|
A|---------------------------------------------------------------------|
E|--1-1-1-1-1-1-1-1-3-3-3-3-3-3-3-3--(-Once-)--------------------------|


 ----------Bridge----------

Time: 3:43-4:02
G|-------2---5---4-------5-----------2---5---4-------5-----------------|
D|-----2---2---2---2---5-------5---2---2---2---2---5-------5-----------|
A|---0---------------3-------5---0---------------3-------5-------------|
E|-------------------------3---------------------------3---------------|

G|-------2---5---4-------5-----------2---5---4-------------------------|
D|-----2---2---2---2---5-------5---2---2---2---2-----3-----5-----------|
A|---0---------------3-------5---0-----------------3-----5-------------|
E|-------------------------3---------------------1-----3---------------|


 ----------Verse 1----------

Time: 4:02-4:50
G|---------------------------------------------------------------------|
D|---------------------------------------------------------------------|
A|--000-000-000-000-000-000-000-000-000-000-000-000-000-000-000-000----| 
E|------------------------------------(-Do-This-From-4:02-To-4:50)-----|


 ----------Verse 3----------

Time: 4:51-5:09
G|---------------------------------------------------------------------|
D|---------------------------------------------------------------------|
A|------------------5-5-5-5-5-5-5-5-----------------5-5-5-5-5-5-5-5----|
E|--1-1-1-1-1-1-1-1-----------------1-1-1-1-1-1-1-1--------------------|

G|---------------------------------------------------------------------|
D|---------------------------------------------------------------------|
A|------------------5-5-5-5-5-5-5-5------------------------------------|
E|--1-1-1-1-1-1-1-1-----------------1-1-1-1-1-1-1-1-3-3-3-3-3-3-3-3----|



 ----------Chorus----------

Time: 5:09-5:47
G|---------------------------------------------------------------------|
D|---------------------------------------------------------------------|
A|---------------------------------------------------------------------|
E|---5-5-5-5-5-5-5-5--1-1-1--3--3-3-3-3--(-Three-Times-)---------------|

G|---------------------------------------------------------------------|
D|---------------------------------------------------------------------|
A|---------------------------------------------------------------------|
E|---1-1-1-1-1-1-1-1-3-3-3-3-3-3-3-3--(-Once-)-------------------------|

G|---------------------------------------------------------------------|
D|---------------------------------------------------------------------|
A|---------------------------------------------------------------------|
E|---5-5-5-5-5-5-5-5--1-1-1--3--3-3-3-3--(-Three-Times-)---------------|

G|---------------------------------------------------------------------|
D|---------------------------------------------------------------------|
A|---------------------------------------------------------------------|
E|---1-1-1-1-1-1-1-1-3-3-3-3-3-3-3-3--(-Once-)-------------------------|


 ----------Interlude----------

Time: 5:47-6:39
G|---------------------------------------------------------------------|
D|-------------------------------(-Twice-Then-)------------------------|
A|---------------------------------------------------------------------|
E|--5-555-555-555-555-555-555-555-55-3-333-333-333-333-333-333-33-333--|

G|---------------------------------------------------------------------|
D|-------------------------------(-Once-)-(-Over-&-Over--5:47-6:39-)---|
A|---------------------------------------------------------------------|
E|--5-555-555-555-555-555-555-555-55-1-111-111-111-111-333-333-33-333--|


 ----------Chorus----------

Time: 6:39-7:02         (Faster Pace!)
G|---------------------------------------------------------------------|
D|---------------------------------------------------------------------|
A|---------------------------------------------------------------------|
E|--5-5-5-5-5-5-5-5--1-1-1--3--3-3-3-3--(-Three-Times-)----------------|

G|---------------------------------------------------------------------|
D|---------------------------------------------------------------------|
A|---------------------------------------------------------------------|
E|--1-1-1-1-1-1-1-1-3-3-3-3-3-3-3-3--(-Once-)--------------------------|


 ----------The Solo----------

Time: 7:02-8:10
G|---------------------------------------------------------------------|
D|---------------------------------------------------------------------|
A|---------------------------------------------------------------------|
E|--5-555-555-555-555-555-555-555-55-1-111-111-111-111-111-111-111-11--|

G|---------------------------------------------------------------------|
D|---------------------------------------------------------------------|
A|--3-333-333-333-333-333-333-333-33-----------------------------------|
E|-----------------------------------1-111-111-111-111-333-333-333-33--|


 ----------Chorus---------- (X2)

Time: 8:10-8:48
G|---------------------------------------------------------------------|
D|---------------------------------------------------------------------|
A|---------------------------------------------------------------------|
E|---5-5-5-5-5-5-5-5--1-1-1--3--3-3-3-3--(-Three-Times-)---------------|

G|---------------------------------------------------------------------|
D|---------------------------------------------------------------------|
A|---------------------------------------------------------------------|
E|---1-1-1-1-1-1-1-1-3-3-3-3-3-3-3-3--(-Once-)-------------------------|

G|---------------------------------------------------------------------|
D|---------------------------------------------------------------------|
A|---------------------------------------------------------------------|
E|---5-5-5-5-5-5-5-5--1-1-1--3--3-3-3-3--(-Three-Times-)---------------|

G|---------------------------------------------------------------------|
D|---------------------------------------------------------------------|
A|---------------------------------------------------------------------|
E|---1-1-1-1-1-1-1-1-3-3-3-3-3-3-3-3--(-Once-)-------------------------|


 ----------Bridge----------

Time: 8:48-End
G|-------2---5---4-------5-----------2---5---4-------5-----------------|
D|-----2---2---2---2---5-------5---2---2---2---2---5-------5-----------|
A|---0---------------3-------5---0---------------3-------5-------------|
E|-------------------------3---------------------------3---------------|

G|-------2---5---4-------5-----------2---5---4-------------------------|
D|-----2---2---2---2---5-------5---2---2---2---2-----3-----5-----------|
A|---0---------------3-------5---0-----------------3-----5-------------|
E|-------------------------3---------------------1-----3---------------|
                                Slow down and end it passionately.

Hope this really helps you learn this song! 





Comments


Popular Iron Maiden tabs & chords
Caught Somewhere In Time Bass Tabs
New Frontier Bass Tabs
Can I Play With Madness Chords
Infinite Dreams 1 Drum Tabs
Be Quick Or Be Dead 4 Tabs
Dance Of Death 2 Tabs
Doctor Doctor Main Riff Tabs
Flash Of The Blade 1 Tabs
Futureal (Solo) Tabs
The Nomad Tabs


Song lyrics



↑ Back to top | Tablatures and chords are parodies/interpretations of the original songs. You may use it for private study, scholarship, research or language learning purposes only
© 2014 AZChords.com Contact us | Privacy policy | DMCA | Add/correct tabs | Request tabs | Top 50 tabs