» » »

Dream Of Mirror Bass tabs (ver.3)

Artists:  A B C D E F G H I J K L M N O P Q R S T U V W X Y Z # 

Dream Of Mirror Bass tabs (ver.3)

Iron Maiden
Rating:
0/5 (0 votes)

Tabs too difficult? Try these video lessons and learn fast.
                                               IRON MAIDEN
                            DREAM OF MIRRORS



(HEAR 2 OR 3 TIMES THE SONG AND YOU WILL SEE THAT THIS IS THE RIGHT TAB, THE OTHER TAB 
GOOD BUT FOR ME THE INTRO IS WRONG)

-----4-5-4-------------4-5-4----7--|
-----------5-----------------5-----|
-0-0---------5----0-0--------------|
-----------------------------------|

------4-5-4------------------------|
------------5----------------------|
-0-0----------5/--15\14H-----------|   H: HOLD
-----------------------------------|

-----4-5-4-------------4-5-4----7--|
-----------5-----------------5-----|
-0-0---------5----0-0--------------|
-----------------------------------|

-----4-5-4-------------------------|
-----------5----------------15-----|
-0-0---------5/-15-14-15-14----15--|
-----------------------------------|

------------------------------------|
------------------------------------|  X2
-2-22-2-22-2-22-2-22-2-22-2-22-2-22-|
------------------------------------|

---------------------------------------------------------------|
---------------------------------------------------------------|
-----------------------------------000-000-000-000-000-000-000-|
-3-333-333-333-333-333-333-333-333-----------------------------|

VERSE: PART 1   (X4)
---------------------------------------------------------------|
---------------------------------------------------------------|
-0-000-000-000-000-000-000-000-000-000-000-000-000-000-000-000-|
---------------------------------------------------------------|

VERSE: PART 2 (X1)
--------------------7---7---7-----------------------7---7---7---|
----3---3---3-----7---7---7---7-----3---3---3-----7---7---7---7-|
--3---3---3---3-5-----------------3---3---3---3-5---------------|
1-------------------------------1-------------------------------|

--------------------7---7---7-----------------------------------|
----3---3---3-----7---7---7---7-----3---3---3-------5---5---5---|
--3---3---3---3-5-----------------3---3---3---3---5---5---5---5-|
1-------------------------------1---------------3---------------|

BRIDGE:  (X1)
-----2---5---4-------5-----------2---5---4-------5-------------|
---2---2---2---2---5-------5---2---2---2---2---5-------5-------|
-0---------------3-------5---0---------------3-------5---------|
-----------------------3---------------------------3-----------|

-----2---5---4-------5-----------2---5---4---------------------|
---2---2---2---2---5-------5---2---2---2---2-----3-----5-------|
-0---------------3-------5---0-----------------3-----5---------|
-----------------------3---------------------1-----3-----------|

VERSE: PART 1 (X4)

VERSE: PART 3  (X1)
----------------------------------------------------------------|
----------------------------------------------------------------|
----------------5-5-5-5-5-5-5-5-----------------5-5-5-5-5-5-5-5-|
1-1-1-1-1-1-1-1-----------------1-1-1-1-1-1-1-1-----------------|

----------------------------------------------------------------|
----------------------------------------------------------------|
----------------5-5-5-5-5-5-5-5---------------------------------|
1-1-1-1-1-1-1-1-----------------1-1-1-1-1-1-1-1-3-3-3-3-3-3-3-3-|

CHORUS:  (X2)
----------------------------------------------------------------|
----------------------------------------------------------------|
----------------------------------------------------------------|
5-5-5-5-5-5-5-5-1-1-1-3-3-3-3-3-5-5-5-5-5-5-5-5-1-1-1-3-3-3-3-3-|

----------------------------------------------------------------|
----------------------------------------------------------------|
----------------------------------------------------------------|
5-5-5-5-5-5-5-5-1-1-1-3-3-3-3-3-1-1-1-1-1-1-1-1-3-3-3-3-3-3-3-3-|

BRIDGE: (X1)
VERSE: PART 1 (X4)
VERSE: PART 3 (X1)
CHORUS: (X2)

INTERLUDE: 1 (X4)
-------------------------------------------------------------------|
-------------------------------------------------------------------|
-------------------------------------------------------------------|
-5-555-555-555-555-555-555-555-55-3-333-333-333-333-333-333-333-33-|

--------------------------------------------------------------------|
--------------------------------------------------------------------|
--------------------------------------------------------------------|
-5-555-555-555-555-555-555-555-55-1-111-111-111-111-333-333-333-33--|

CHORUS: (X2)

SOLO:  (X6)
-------------------------------------------------------------------|
-------------------------------------------------------------------|
-------------------------------------------------------------------|
-5-555-555-555-555-555-555-555-55-1-111-111-111-111-111-111-111-11-|

-------------------------------------------------------------------|
-------------------------------------------------------------------|
-3-333-333-333-333-333-333-333-33----------------------------------|
----------------------------------1-111-111-111-111-333-333-333-33-|

CHORUS: (X2)
BRIDGE: (X1)

THATS IT....I THINK ITS A BIT CONFUSING THE TAB I MADE LOL....
            
Tabs too difficult? Try these video lessons and learn fast.


comments powered by Disqus
↑ Back to top | Tablatures and chords are parodies/interpretations of the original songs. You may use it for private study, scholarship, research or language learning purposes only