>
 >
Dream Of Mirrors

Dream Of Mirrors Guitar Tabs

Iron Maiden - Dream Of Mirrors chords, tabs, tablatures, lyrics

Guitar lessons | Add/correct | Request | Top 50 tabs Artists:  A B C D E F G H I J K L M N O P Q R S T U V W X Y Z 0-9

Dream Of Mirrors Guitar Tabs – Iron Maiden

CD, Sheet music, Poster

Do you like Dream Of Mirrors? Share with your friends now
Bass TabsBass Tabs v2Bass Tabs v3TabsTabs v2Tabs v3
PROPS GO TO: gabriel

IRON MAIDEN
"Dream of Mirrors"
Brave New World

'OO:OO Intro:Play heavy the chords

e-------------------------------------------------------------------
b-------------------------------------------------------------------
g-----4-5-4----------4-5-4---7------4-5-4--------------------4/5-4-- x2
d-7-7-------5----7-7-------5----7-7-------5--------------3-2--------
a-7-7---------5--7-7------------7-7---------5---/3-2-3-2------------
E-5-5------------5-5------------5-5---------------------------------

'OO:2O The bass plays "A" and "G" when change the chord.

 A.................................................G....................A..........................
--------9--9h10p9-7-9---------9--9h10p9-7-9-10/12---------7--7h9p7-5-7---------9--9h10p9-7-9-10/12-
-7--7-7----------------7--7-7----------------------5--5-5---------------7--7-7---------------------

OO:39 Repeat this "armony1" nine times(5th and 6th time play "Am" down to up).

--------9h10p9p7----------7h9p7-------------5h7p5p4----------4h5p4------  ----2----
-----------------7--------------10-7----------------7--------------5-7--  ----2----
-0--0-0------------0--0-0------------0--0-0-----------0--0-0------------  ---------

'O1:19 Play "F"(firts and second time only) 
                                            
-----------------------------------
-----------------------------------
----------------------7---7---7----
-----3---3---3------7---7---7---7--
---3---3---3---3--5----------------
-1---------------------------------

'O1:33 

-----------------------------------
-----------------------------------
-----------------------------------
-----3---3---3--------5---5---5----
---3---3---3---3----5---5---5---5--
-1----------------3----------------

'O1:38 Two guitars play this "armony2".
       The "p" is very soft and slowly.

-----------------------------
---------1p0-0---------------
-----2-------------0----0----
---2---2---------2----0---0--
-0-------------3-------------
---------------------3-------

'O1:52 aprox. "armony2"

----------------------------
---------1p0-0--------------
-----2----------------------
---2---2-----------3-----5--
-0---------------3-----5----
---------------1-----3------

'O1:57 Repeat "armony1"

'O2:46 aprox. "Fig1".Three guitars play(G1,G2,G3)

G1             G2              G3
 ------------   -------------   -----------------------------------
 ------------   -------------   -----------------------------------
 ------------   -------------   ----------------------7---7---7----
 -3-3-3---7--   -3--------7--   -----3---3---3------7---7---7---7--
 -3-3-3---5--   -3--------5--   ---3---3---3---3--5----------------
 -1-1-1------   -1-----------   -1---------------------------------

'O3:O3 aprox."Fig1"

G1-G2       G3
     -----    -------------------
     -----    -------------------
     -----    -------------------
     --5--    -----5---5---5-----
     --5--    ---5---5---5---5---
     --3--    -3-----------------

'O3:O6 "Fig2"_________________________'O3:20 "Fig2"

G1-G2-G3                     G3        G1-G2-G3               G3       G1-G2-G3
        --------------1--1-3----3----          -1---1-1-1---3-----3---         -----
        --------------1--1-3------3--          -1---1-1-1---3-------3-         -----
        --------------2--2-4--4------          -2---2-2-2---4---4-----         -----
        -7-7-7-7-7-7--3--3-5---------          -3-3-3-3-3--/5---------         --7--
        -7-7-7-7-7-7--3--3-5---------          -3-3-3-3-3--/5---------         --7--
        -5-5-5-5-5-5--1--1-3---------          -1-1-1-1-1--/3---------         --5--

'O3:44 Finished the chord,inmediately play "armony2" and then "armony2"

'O4:O2-'O4:O3 aprox. Repeat "armony1"

'O4:51 "Fig1" and then "Fig1"

'O5:1O "Fig2" and "Fig2"


'O5:47-'O5:48 aprox. Riff1

G1
  -7h8p7p5-7-7--------7h8p7p5-7-7--------5h6p5p3-5-5-------5h6p5p3-5-5--------
  -------------10---8-------------10---8-------------8---6-------------8---6--
  ----------------9------------------9-----------------7-----------------7----
  ----------------------------------------------------------------------------
  ----------------------------------------------------------------------------
  ----------------------------------------------------------------------------
G2
  --------------------------------------------------------------------
  --------------------------------------------------------------------
  -4h5p4-4-4-------4h5p4-4-4-------2h3p2-2-2-------2h3p2-2-2----------
  -----------7---5-----------7---5-----------5---3-----------5---3----
  -------------7---------------7---------------5---------------5------
  --------------------------------------------------------------------

'O5:59 aprox. Riff2. The three guitars

-5-.............3-...............5-...............1-...............3-..............-

Riff1

Riff2

Riff1


'O6:39 aprox.

-------------    ------------
-------------    ------------
-------------    ------------
-7-----3--5-- x3 -3----5-----
-7-----3--5--    -3----5-----
-5-----1--3--    -1----3-----


'O7:O2 aprox. Riff3

-------------------------------------    -------------------
------------5-5-5-3-3-3--------------    -------------------
-2h3p2-0-2--------------5-5-5-4-4-4-- x3 -2h3p2-0-2--4h5p4--
-------------------------------------    -------------------
-------------------------------------    -------------------
-------------------------------------    -------------------

'O7:25 SOLO

'O7:47 aprox. Riff3

'O7:57 aprox. On Riff3 play with G2

-----------------------------------------------    ------------------
--------------------8-8-8-6-6-6----------------    ------------------
-4h5/7----4h5p4---5-------------9-9-9-7-7-7---- x3 -4h5p4-----4h5/7--
----------------7------------------------------    -------7----------
-----------------------------------------------    ------------------
-----------------------------------------------    ------------------

'O8:11 aprox. Repeat "fi2" and "fig2"

'O8:49 Finished the chord,inmediately play "armony2" and then "armony2"

'O9:O7-'O9:O8 Play the finish

----------------------------------------------
----------------------------------------------
--------9h10p9p7-----7--------9h10p9p7-----7--
-----------------7-7-------------------7-7----
-0--0-0----------------0--0-0-----------------
----------------------------------------------





Comments


Popular Iron Maiden tabs & chords
Montsegur 1 Bass Tabs
The Nomad Bass Tabs
Paschendale Chords
Montsegur Drum Tabs
Blood Brothers 3 Tabs
Dance Of Death Tabs
Drifter 1 Tabs
Hallowed By Thy Name 1 Tabs
No More Lies 3 Tabs
No Prayer For The Dying Tabs


Song lyrics



↑ Back to top | Tablatures and chords are parodies/interpretations of the original songs. You may use it for private study, scholarship, research or language learning purposes only
© 2014 AZChords.com Contact us | Privacy policy | DMCA | Add/correct tabs | Request tabs | Top 50 tabs