>
 >
Trigger 2

Trigger 2 Bass Tabs

In Flames - Trigger 2 chords, tabs, tablatures, lyrics

Guitar lessons | Add/correct | Request | Top 50 tabs Artists:  A B C D E F G H I J K L M N O P Q R S T U V W X Y Z 0-9

Trigger 2 Bass Tabs – In Flames

CD, Sheet music, Poster

Do you like Trigger 2? Share with your friends now
Bass TabsBass Tabs v2Bass Tabs v3ChordsTabsTabs v2Ukulele
Intro:(x2)
G:|------------------------------|-----------------------------|
D:|------------------------------|-----------------------------|
A:|----3---3-3-3-3-3-3-----------|----3---3-3-3-3-3-3-1--------|
E:|--------------------4----1----|------------------------3----|
   


|------------------------------|------------------------------------|   
|------------------------------|------------------------------------|
|----3---3-3-------------------|----3---3-0---0-0-0-1---1-2---2-2-2-|
|------------1-1-1-1-4----1----|------------------------------------|  
(Hold the second-to-last note and the last note in the 1st 3 bars for a bit longer)


Verse 1:
|
|-------------------------------|   (x4)
|-------------------------------|  Repeat 
|-------------------------------| the last
|---8888--8888-----8888--8888---|   bar



|---------------------------|---------------------------|
|---------------------------|---------------------------|
|---------------------------|---------------------------|
|---8888--8888--8-----------|---8888--8888--4-----------|
           (Hold last note till next note in these 2 bars)


|-------------------------------|   (x2)
|-------------------------------|  Repeat
|-------------------------------| the last
|---8888--8888-----8888--8888---|   bar




|---------------------------|---------------------------|
|---------------------------|---------------------------|
|---------------------------|---------------------------|
|---8888--8888--8-----------|---8888--8888--4-----------|
           (Hold last note till next note in these 2 bars) 



Bridge:
|-----------------------------------------------------------|   (x3)
|-----------------------------------------------------------|  Repeat
|--------------------------3-3-3-3-3-3-3-3-3-3-3-3-3-3-3-3--| the last
|-444444444444444444444444----------------------------------|   bar




|-------------------------------|
|--------------0-0-0-0-0-0-0-0--|
|-------------------------------|
|-444444444444------------------|




Verse 2:
|-------------------------------|   (x2)
|-------------------------------|  Repeat
|-------------------------------| the last  
|---8888--8888-----8888--8888---|   bar





|---------------------------|---------------------------|
|---------------------------|---------------------------|
|---------------------------|---------------------------|
|---8888--8888--8-----------|---8888--8888--4-----------|
         (Hold the last note till next note in these 2 bars)



|-------------------------------|   (x2)
|-------------------------------|  Repeat
|-------------------------------| the last
|---8888--8888-----8888--8888---|   bar




|---------------------------|---------------------------|
|---------------------------|---------------------------|
|---------------------------|---------------------------|
|---8888--8888--8-----------|---8888--8888--4-----------|
         (Hold the last note till next note in these 2 bars)



Bridge:
|---------------------------------------------------------|   (x3)
|---------------------------------------------------------|  Repeat
|--------------------------3-3-3-3-3-3-3-3-3-3-3-3-3-3-3--| the last
|-444444444444444444444444--------------------------------|   bar
 



|---------------------------------------------------------|
|---------------------------------------------------------|
|-----------------------------------1-1-----1-1-----1-----|
|-4---4-4-4-4-4-4-4-4-4-4-4-4-4-4-4-----------------------|
          (Hold: 2nd "1", 4th "1" and strike last "1") 



Chorus:
|-----------------------------------------------------------------|
|--------------------3---3-3---3-3-3-----------------1------0-----|
|----3---3-3---3-3-3-----------------3---3-3---3-3-3--------------|
|-----------------------------------------------------------------|
          (Hold the last 2 notes in every bar of the chorus played)



|-----------------------------------------------------------0-----|  
|--------------------3---3-3---3-3-3-----------------3------------|
|----3---3-3---3-3-3-----------------3---3-3---3-3-3--------------|
|-----------------------------------------------------------------|




|-----------------------------------------------------------------|
|--------------------3---3-3---3-3-3-----------------1------0-----|
|----3---3-3---3-3-3-----------------3---3-3---3-3-3--------------|
|-----------------------------------------------------------------|




|-----------------------------------------------------------0-----|
|--------------------3---3-3---3-3-3-----------------3------------|
|----3---3-3---3-3-3-----------------3---3-3---3-3-3--------------|
|-----------------------------------------------------------------|




Verse 3:
|-------------------------------|   (x2)
|-------------------------------|  Repeat
|-------------------------------| the last
|---8888--8888-----8888--8888---|   bar




|---------------------------|---------------------------|
|---------------------------|---------------------------|
|---------------------------|---------------------------|
|---8888--8888--8-----------|---8888--8888--4-----------|




|---------------------|
|--16   beats   or ---|
|-- 4  bars REST! ----|
|---------------------|



Chorus:
|-----------------------------------------------------------------|
|--------------------3---3-3---3-3-3-----------------1------0-----|
|----3---3-3---3-3-3-----------------3---3-3---3-3-3--------------|
|-----------------------------------------------------------------|



|-----------------------------------------------------------0-----|
|--------------------3---3-3---3-3-3-----------------3------------|
|----3---3-3---3-3-3-----------------3---3-3---3-3-3--------------|
|-----------------------------------------------------------------|



|-----------------------------------------------------------------|
|--------------------3---3-3---3-3-3-----------------1------0-----|
|----3---3-3---3-3-3-----------------3---3-3---3-3-3--------------|
|-----------------------------------------------------------------|



|-----------------------------------------------------------0-----|
|--------------------3---3-3---3-3-3-----------------3------------|
|----3---3-3---3-3-3-----------------3---3-3---3-3-3--------------|
|-----------------------------------------------------------------|



Intro 2:
|----1---1-1---1-1-1-3---3-3---3-3-3---|
|--------------------------------------|
|--------------------------------------|
|--------------------------------------|



Intro 3:
|-------------------3---3-----------|   (x4)
|---------1---1-1-1-------3-3-3-3---|  Repeat
|---3---3---------------------------| the last 
|-----------------------------------|   bar



Intro: (1st time = volume down)   (2nd time = volume up)
|------------------------------|------------------------------|  
|------------------------------|------------------------------|  
|----3---3-3-3-3-3-3-----------|----3---3-3-3-3-3-3-1---------| 
|--------------------4----1----|-------------------------3----|




|------------------------------|------------------------------------|
|------------------------------|------------------------------------|    
|----3---3-3-------------------|----3---3-0---0-0-0-1-1-1-1-2-2-2-2-|
|------------1-1-1-1-4----1----|------------------------------------|



  (x2)
 Repeat
 intro



|------------------|
|-- 16 beats or ---|
|-- 4 bars REST! --|
|------------------|



Chorus:
|-----------------------------------------------------------------|
|--------------------3---3-3---3-3-3-----------------1------0-----|
|----3---3-3---3-3-3-----------------3---3-3---3-3-3--------------|
|-----------------------------------------------------------------|




|-----------------------------------------------------------0-----|   
|--------------------3---3-3---3-3-3-----------------3------------|
|----3---3-3---3-3-3-----------------3---3-3---3-3-3--------------|
|-----------------------------------------------------------------|



|-----------------------------------------------------------------|
|--------------------3---3-3---3-3-3-----------------1------0-----|
|----3---3-3---3-3-3-----------------3---3-3---3-3-3--------------|
|-----------------------------------------------------------------|



|-----------------------------------------------------------0-----|
|--------------------3---3-3---3-3-3-----------------3------------| 
|----3---3-3---3-3-3-----------------3---3-3---3-3-3--------------|
|-----------------------------------------------------------------|
  


   (x3) - play chorus 3 times

        - Fade out.


       
               RATE THIS TAB & Enjoy playing!!!!





Comments


Popular In Flames tabs & chords
Bottled Bass Tabs
Come Clarity 1 Tabs
Delight And Angers 1 Tabs
Jester Script Transfigured Tabs
Jotun 2 Tabs
Lord Hypnos Tabs
Moonshield 1 Tabs
Trigger Tabs
Where The Dead Ships Dwell Tabs
Metaphor Ukulele


Song lyrics



↑ Back to top | Tablatures and chords are parodies/interpretations of the original songs. You may use it for private study, scholarship, research or language learning purposes only
© 2014 AZChords.com Contact us | Privacy policy | DMCA | Add/correct tabs | Request tabs | Top 50 tabs