>
 >
Trigger

Trigger Bass Tabs

In Flames - Trigger chords, tabs, tablatures, lyrics

Guitar lessons | Add/correct | Request | Top 50 tabs Artists:  A B C D E F G H I J K L M N O P Q R S T U V W X Y Z 0-9

Trigger Bass Tabs – In Flames

CD, Sheet music, Poster

Do you like Trigger? Share with your friends now
Bass TabsBass Tabs v2Bass Tabs v3ChordsTabsTabs v2Ukulele
Tune Down

D#||-----------------------------|--------------------------|
A#||-----------------------------|--------------------------|
F ||-----------------------------|--3--3--3--3--0--0--0--0--|
C ||--0-0-0--0--0-0-0--0--0-0-0--|--------------------------|
G ||-----------------------------|--------------------------|


                                                         
-----------------------------|--------------------------|
-----------------------------|--------------------------|
-----------------------------|--5--5--5--5--2--2--2--2--|
--0-0-0--0--0-0-0--0--0-0-0--|--------------------------|
-----------------------------|--------------------------|


                                                         
-----------------------------|--------------------------|
-----------------------------|--------------------------|
-----------------------------|--3--3--3--3--0--0--0--0--|
--0-0-0--0--0-0-3--3--3-3-3--|--------------------------|
-----------------------------|--------------------------|


                                                         
-----------------------------|--------------------------|
-----------------------------|--------------------------|
----------------0--0--0-0-0--|--5--5--5--5--------------|
--0-0-0--0--0-0--------------|--------------7--7--7--7--|
-----------------------------|--------------------------|


                                                         
-----------------------------|--------------------------|
-----------------------------|--------------------------|
-----------------------------|--3--3--3--3--0--0--0--0--|
--0-0-0--0--0-0-0--0--0-0-0--|--------------------------|
-----------------------------|--------------------------|


                                                         
-----------------------------|--------------------------|
-----------------------------|--------------------------|
-----------------------------|--5--5--5--5--2--2--2--2--|
--0-0-0--0--0-0-0--0--0-0-0--|--------------------------|
-----------------------------|--------------------------|


                                                         
-----------------------------|--------------------------|
-----------------------------|--------------------------|
-----------------------------|--3--3--3--3--0--0--0--0--|
--0-0-0--0--0-0-3--3--3-3-3--|--------------------------|
-----------------------------|--------------------------|


                                                         
-----------------------------|--------------------------|
-----------------------------|--------------------------|
----------------0--0--0-0-0--|--5--5--5--5--------------|
--0-0-0--0--0-0--------------|--------------7--7--7--7--|
-----------------------------|--------------------------|


                                                      
--------------------------|--------------------------|
--------------------------|--------------------------|
--------------------------|--------------------------|
--0-0-0----0-0-0----0--0--|--0--0--0--0--0--0--0--0--|
--------------------------|--------------------------|


                                                      
--------------------------|--------------------------|
--------------------------|--------------------------|
--------------------------|--------------------------|
--0-0-0----0-0-0----0--0--|--0--0--0--0--0--0--0--0--|
--------------------------|--------------------------|


                                                      
--------------------------|--------------------------|
--------------------------|--------------------------|
--------------------------|--------------------------|
--0-0-0----0-0-0----0--0--|--0--0--0--0--0--0--0--0--|
--------------------------|--------------------------|


                                                      
--------------------------|--------------------------|
--------------------------|--------------------------|
--------------------------|--------------------------|
--0-0-0----0-0-0----0--0--|--0--0--0--0--0--0--0--0--|
--------------------------|--------------------------|


                                                      
--------------------------|--------------------------|
--------------------------|--------------------------|
--------------------------|--------------------------|
--0-0-0----0-0-0----0--0--|--0--0--0--0--0--0--0--0--|
--------------------------|--------------------------|


                                                      
--------------------------|--------------------------|
--------------------------|--------------------------|
--------------------------|--3--3--3--3--3--3--3--3--|
--0-0-0----0-0-0----0--0--|--------------------------|
--------------------------|--------------------------|


                                                      
--------------------------|--------------------------|
--------------------------|--------------------------|
--------------------------|--------------------------|
--0-0-0----0-0-0----0--0--|--0--0--0--0--0--0--0--0--|
--------------------------|--------------------------|


                                                      
--------------------------|--------------------------|
--------------------------|--------------------------|
--------------------------|--------------------------|
--0-0-0----0-0-0----0--0--|--0--0--0--0--0--0--0--0--|
--------------------------|--------------------------|


                                                      
--------------------------|--------------------------|
--------------------------|--------------------------|
--------------------------|--------------------------|
--0-0-0----0-0-0----0--0--|--0--0--0--0--0--0--0--0--|
--------------------------|--------------------------|


                                                      
--------------------------|--------------------------|
--------------------------|--------------------------|
--------------------3--3--|--3--3--3--3--------------|
--0-0-0----0-0-0----------|--------------0--0--------|
--------------------------|--------------------3--0--|


                                                                               
--------------------------|------------------------|--------------------------|
--------------------------|------------------------|--------------------------|
--3--3--3--3--3--3--3--3--|--3--3--3--2------------|--------------------------|
--------------------------|----------------3----0--|--0--0--0--0--0--0--0--0--|
--------------------------|------------------------|--------------------------|


                                                                                
--------------------------|-------------------------|--------------------------|
--------------------------|-------------------------|--------------------------|
-----------------------3--|----3--3--3--3--3--3--3--|--3--3--3--3--------------|
--0-----0--2--3--2--2-----|-------------------------|--------------0--0--0--0--|
-----3--------------------|-------------------------|--------------------------|


                                                      
--------------------------|--------------------------|
--------------------------|--------------------------|
--------------------------|--------------------------|
--0--0--0--0--0--0--0--0--|--0--0--0--0--0--0--0--0--|
--------------------------|--------------------------|


                                                                               
--------------------------|------------------------|--------------------------|
--------------------------|------------------------|--------------------------|
--3--3--3--3--3--3--3--3--|--3--3--3--2------------|--------------------------|
--------------------------|----------------3----0--|--0--0--0--0--0--0--0--0--|
--------------------------|------------------------|--------------------------|


                                                                                
--------------------------|-------------------------|--------------------------|
--------------------------|-------------------------|--------------------------|
-----------------------3--|----3--3--3--3--3--3--3--|--2--2--2--2--2--2--2--2--|
--0-----0--2--3--2--2-----|-------------------------|--------------------------|
-----3--------------------|-------------------------|--------------------------|


                                                      
--------------------------|--------------------------|
--------------------------|--------------------------|
--------------------------|--------------------------|
--0-0-0----0-0-0----0--0--|--0--0--0--0--0--0--0--0--|
--------------------------|--------------------------|


                                                      
--------------------------|--------------------------|
--------------------------|--------------------------|
--------------------------|--------------------------|
--0-0-0----0-0-0----0--0--|--0--0--0--0--0--0--0--0--|
--------------------------|--------------------------|


                                                      
--------------------------|--------------------------|
--------------------------|--------------------------|
--------------------------|--------------------------|
--0-0-0----0-0-0----0--0--|--0--0--0--0--0--0--0--0--|
--------------------------|--------------------------|


                                                      
--------------------------|--------------------------|
--------------------------|--------------------------|
--------------------3--3--|--3--3--3--3--3--3--3--3--|
--0-0-0----0-0-0----------|--------------------------|
--------------------------|--------------------------|


                                                      
--------------------------|--------------------------|
--------------------------|--------------------------|
--------------------------|--------------------------|
--0-0-0----0-0-0----0--0--|--0--0--0--0--0--0--0--0--|
--------------------------|--------------------------|


                                                      
--------------------------|--------------------------|
--------------------------|--------------------------|
--------------------------|--------------------------|
--0-0-0----0-0-0----0--0--|--0--0--0--0--0--0--0--0--|
--------------------------|--------------------------|


                                                      
--------------------------|--------------------------|
--------------------------|--------------------------|
--------------------------|--------------------------|
--0-0-0----0-0-0----0--0--|--0--0--0--0--0--0--0--0--|
--------------------------|--------------------------|


                                                      
--------------------------|--------------------------|
--------------------------|--------------------------|
--------------------3--3--|--3--3--3--3--------------|
--0-0-0----0-0-0----------|--------------0--0--------|
--------------------------|--------------------3--0--|


                                                                               
--------------------------|------------------------|--------------------------|
--------------------------|------------------------|--------------------------|
--3--3--3--3--3--3--3--3--|--3--3--3--2------------|--------------------------|
--------------------------|----------------3----0--|--0--0--0--0--0--0--0--0--|
--------------------------|------------------------|--------------------------|


                                                                                
--------------------------|-------------------------|--------------------------|
--------------------------|-------------------------|--------------------------|
-----------------------3--|----3--3--3--3--3--3--3--|--3--3--3--3--------------|
--0-----0--2--3--2--2-----|-------------------------|--------------0--0--0--0--|
-----3--------------------|-------------------------|--------------------------|


                                                      
--------------------------|--------------------------|
--------------------------|--------------------------|
--------------------------|--------------------------|
--0--0--0--0--0--0--0--0--|--0--0--0--0--0--0--0--0--|
--------------------------|--------------------------|


                                                                               
--------------------------|------------------------|--------------------------|
--------------------------|------------------------|--------------------------|
--3--3--3--3--3--3--3--3--|--3--3--3--2------------|--------------------------|
--------------------------|----------------3----0--|--0--0--0--0--0--0--0--0--|
--------------------------|------------------------|--------------------------|


                                                                                
--------------------------|-------------------------|--------------------------|
--------------------------|-------------------------|--------------------------|
-----------------------3--|----3--3--3--3--3--3--3--|--3--3--3--3--3--3--3--3--|
--0-----0--2--3--2--2-----|-------------------------|--------------------------|
-----3--------------------|-------------------------|--------------------------|


                                                                           
--------------------------|----------------------|------------------------|
--------------------------|----------------------|------------------------|
--5--5--5--5--5--5--5--5--|----------------------|---------------------0--|
--------------------------|----------------------|--0----0--0----0--0-----|
--------------------------|----------3/-12/---0--|------------------------|


                                                                           
------------------------|------------------------|------------------------|
------------------------|------------------------|------------------------|
----0--0--3----3--3-----|----------3----3--3-----|----------5----5--5--5--|
---------------------0--|----0--0-------------3--|----3--3----------------|
------------------------|------------------------|------------------------|


                                                                           
------------------------|------------------------|------------------------|
------------------------|------------------------|------------------------|
---------------------0--|----0--0--3----3--3-----|----------3----3--3-----|
--0----0--0----0--0-----|---------------------0--|----0--0-------------3--|
------------------------|------------------------|------------------------|


                                                                           
------------------------|------------------------|------------------------|
------------------------|------------------------|------------------------|
----------2----2--2--2--|---------------------0--|----0--0--3----3--3-----|
----3--3----------------|--0----0--0----0--0-----|---------------------0--|
------------------------|------------------------|------------------------|


                                                                           
------------------------|------------------------|------------------------|
------------------------|------------------------|------------------------|
----------3----3--3-----|----------5----5--5--5--|---------------------0--|
----0--0-------------3--|----3--3----------------|--0----0--0----0--0-----|
------------------------|------------------------|------------------------|


                                                                           
------------------------|------------------------|------------------------|
------------------------|------------------------|------------------------|
----0--0--3----3--3-----|----------3----3--3-----|----------2----2--2--2--|
---------------------0--|----0--0-------------3--|----3--3----------------|
------------------------|------------------------|------------------------|


                                                      
--------------------------|--------------------------|
--------------------------|--------------------------|
--------------------------|--------------------------|
--0-0-0----0-0-0----0--0--|--0--0--0--0--0--0--0--0--|
--------------------------|--------------------------|


                                                      
--------------------------|--------------------------|
--------------------------|--------------------------|
--------------------------|--------------------------|
--0-0-0----0-0-0----0--0--|--0--0--0--0--0--0--0--0--|
--------------------------|--------------------------|


                                                      
--------------------------|--------------------------|
--------------------------|--------------------------|
--------------------------|--------------------------|
--0-0-0----0-0-0----0--0--|--0--0--0--0--0--0--0--0--|
--------------------------|--------------------------|


                                                                               
--------------------------|--------------------------|----|----|----|----|----|
--------------------------|--------------------------|----|----|----|----|----|
--------------------3--3--|--3--3--3--3--3--3--3--3--|----|----|----|----|----|
--0-0-0----0-0-0----------|--------------------------|----|----|----|----|----|
--------------------------|--------------------------|----|----|----|----|----|


                                                                 
----|----|----|------------------------|------------------------|
----|----|----|------------------------|------------------------|
----|----|----|---------------------0--|----0--0--3----3--3-----|
----|----|----|--0----0--0----0--0-----|---------------------0--|
----|----|----|------------------------|------------------------|


                                                                           
------------------------|------------------------|------------------------|
------------------------|------------------------|------------------------|
----------3----3--3-----|----------5----5--5--5--|---------------------0--|
----0--0-------------3--|----3--3----------------|--0----0--0----0--0-----|
------------------------|------------------------|------------------------|


                                                                           
------------------------|------------------------|------------------------|
------------------------|------------------------|------------------------|
----0--0--3----3--3-----|----------3----3--3-----|----------2----2--2--2--|
---------------------0--|----0--0-------------3--|----3--3----------------|
------------------------|------------------------|------------------------|


                                                                           
------------------------|------------------------|------------------------|
------------------------|------------------------|------------------------|
---------------------0--|----0--0--3----3--3-----|----------3----3--3-----|
--0----0--0----0--0-----|---------------------0--|----0--0-------------3--|
------------------------|------------------------|------------------------|


                                                                           
------------------------|------------------------|------------------------|
------------------------|------------------------|------------------------|
----------5----5--5--5--|---------------------0--|----0--0--3----3--3-----|
----3--3----------------|--0----0--0----0--0-----|---------------------0--|
------------------------|------------------------|------------------------|


                                                                             
------------------------|------------------------|--------------------------|
------------------------|------------------------|--------------------------|
----------3----3--3-----|----------2----2--2--2--|--3--3--3--3--3--3--3--3--|
----0--0-------------3--|----3--3----------------|--------------------------|
------------------------|------------------------|--------------------------|


                                                                             
-------------------------|-------------------------|------------------------|
-------------------------|-------------------------|------------------------|
--0--0--0--2----2--2--2--|----------------------5--|----5--5--0----0--0--0--|
-------------------------|--0--0--0--3----3--3-----|------------------------|
-------------------------|-------------------------|------------------------|


                                                                             
-------------------------|------------------------|-------------------------|
-------------------------|------------------------|-------------------------|
----------------------5--|----5--5--2----2--2--2--|----------------------5--|
--0--0--0--3----3--3-----|------------------------|--0--0--0--3----3--3-----|
-------------------------|------------------------|-------------------------|


                                                                            
------------------------|-------------------------|------------------------|
------------------------|-------------------------|------------------------|
----5--5--0----0--0--0--|----------------------5--|----5--5--2----2--2--2--|
------------------------|--0--0--0--3----3--3-----|------------------------|
------------------------|-------------------------|------------------------|


                                                         
-----------------------------|--------------------------|
-----------------------------|--------------------------|
-----------------------------|--3--3--3--3--0--0--0--0--|
--0-0-0--0--0-0-0--0--0-0-0--|--------------------------|
-----------------------------|--------------------------|


                                                         
-----------------------------|--------------------------|
-----------------------------|--------------------------|
-----------------------------|--5--5--5--5--2--2--2--2--|
--0-0-0--0--0-0-0--0--0-0-0--|--------------------------|
-----------------------------|--------------------------|


                                                         
-----------------------------|--------------------------|
-----------------------------|--------------------------|
-----------------------------|--3--3--3--3--0--0--0--0--|
--0-0-0--0--0-0-3--3--3-3-3--|--------------------------|
-----------------------------|--------------------------|


                                                         
-----------------------------|--------------------------|
-----------------------------|--------------------------|
----------------0--0--0-0-0--|--5--5--5--5--------------|
--0-0-0--0--0-0--------------|--------------7--7--7--7--|
-----------------------------|--------------------------|


                                                         
-----------------------------|--------------------------|
-----------------------------|--------------------------|
-----------------------------|--3--3--3--3--0--0--0--0--|
--0-0-0--0--0-0-0--0--0-0-0--|--------------------------|
-----------------------------|--------------------------|


                                                         
-----------------------------|--------------------------|
-----------------------------|--------------------------|
-----------------------------|--5--5--5--5--2--2--2--2--|
--0-0-0--0--0-0-0--0--0-0-0--|--------------------------|
-----------------------------|--------------------------|


                                                         
-----------------------------|--------------------------|
-----------------------------|--------------------------|
-----------------------------|--3--3--3--3--0--0--0--0--|
--0-0-0--0--0-0-3--3--3-3-3--|--------------------------|
-----------------------------|--------------------------|


                                                                             
-----------------------------|--------------------------|----|----|----|----|
-----------------------------|--------------------------|----|----|----|----|
----------------0--0--0-0-0--|--5--5--5--5--------------|----|----|----|----|
--0-0-0--0--0-0--------------|--------------7--7--7--7--|----|----|----|----|
-----------------------------|--------------------------|----|----|----|----|


                                                              
----|----|----|---------------------|------------------------|
----|----|----|---------------------|------------------------|
----|----|----|---------------------|---------------------0--|
----|----|----|---------------------|--0----0--0----0--0-----|
----|----|----|----------12/-----5--|------------------------|


                                                                           
------------------------|------------------------|------------------------|
------------------------|------------------------|------------------------|
----0--0--3----3--3-----|----------3----3--3-----|----------5----5--5--5--|
---------------------0--|----0--0-------------3--|----3--3----------------|
------------------------|------------------------|------------------------|


                                                                           
------------------------|------------------------|------------------------|
------------------------|------------------------|------------------------|
---------------------0--|----0--0--3----3--3-----|----------3----3--3-----|
--0----0--0----0--0-----|---------------------0--|----0--0-------------3--|
------------------------|------------------------|------------------------|


                                                                           
------------------------|------------------------|------------------------|
------------------------|------------------------|------------------------|
----------2----2--2--2--|---------------------0--|----0--0--3----3--3-----|
----3--3----------------|--0----0--0----0--0-----|---------------------0--|
------------------------|------------------------|------------------------|


                                                                           
------------------------|------------------------|------------------------|
------------------------|------------------------|------------------------|
----------3----3--3-----|----------5----5--5--5--|---------------------0--|
----0--0-------------3--|----3--3----------------|--0----0--0----0--0-----|
------------------------|------------------------|------------------------|


                                                                           
------------------------|------------------------|------------------------|
------------------------|------------------------|------------------------|
----0--0--3----3--3-----|----------3----3--3-----|----------2----2--2--2--|
---------------------0--|----0--0-------------3--|----3--3----------------|
------------------------|------------------------|------------------------|


                                                                           
------------------------|------------------------|------------------------|
------------------------|------------------------|------------------------|
---------------------0--|----0--0--3----3--3-----|----------3----3--3-----|
--0----0--0----0--0-----|---------------------0--|----0--0-------------3--|
------------------------|------------------------|------------------------|


                                                                           
------------------------|------------------------|------------------------|
------------------------|------------------------|------------------------|
----------5----5--5--5--|---------------------0--|----0--0--3----3--3-----|
----3--3----------------|--0----0--0----0--0-----|---------------------0--|
------------------------|------------------------|------------------------|


                                                                           
------------------------|------------------------|------------------------|
------------------------|------------------------|------------------------|
----------3----3--3-----|----------2----2--2--2--|---------------------0--|
----0--0-------------3--|----3--3----------------|--0----0--0----0--0-----|
------------------------|------------------------|------------------------|


                                                                           
------------------------|------------------------|------------------------|
------------------------|------------------------|------------------------|
----0--0--3----3--3-----|----------3----3--3-----|----------5----5--5--5--|
---------------------0--|----0--0-------------3--|----3--3----------------|
------------------------|------------------------|------------------------|


                                                                           
------------------------|------------------------|------------------------|
------------------------|------------------------|------------------------|
---------------------0--|----0--0--3----3--3-----|----------3----3--3-----|
--0----0--0----0--0-----|---------------------0--|----0--0-------------3--|
------------------------|------------------------|------------------------|


                                                                           
------------------------|------------------------|------------------------|
------------------------|------------------------|------------------------|
----------2----2--2--2--|---------------------0--|----0--0--3----3--3-----|
----3--3----------------|--0----0--0----0--0-----|---------------------0--|
------------------------|------------------------|------------------------|


                                                                           
------------------------|------------------------|------------------------|
------------------------|------------------------|------------------------|
----------3----3--3-----|----------5----5--5--5--|---------------------0--|
----0--0-------------3--|----3--3----------------|--0----0--0----0--0-----|
------------------------|------------------------|------------------------|


                                                                           
------------------------|------------------------|------------------------|
------------------------|------------------------|------------------------|
----0--0--3----3--3-----|----------3----3--3-----|----------2----2--2--2--|
---------------------0--|----0--0-------------3--|----3--3----------------|
------------------------|------------------------|------------------------|


                                                                           
------------------------|------------------------|------------------------|
------------------------|------------------------|------------------------|
---------------------0--|----0--0--3----3--3-----|----------3----3--3-----|
--0----0--0----0--0-----|---------------------0--|----0--0-------------3--|
------------------------|------------------------|------------------------|


                                                                           
------------------------|------------------------|------------------------|
------------------------|------------------------|------------------------|
----------5----5--5--5--|---------------------0--|----0--0--3----3--3-----|
----3--3----------------|--0----0--0----0--0-----|---------------------0--|
------------------------|------------------------|------------------------|


                                                                           
------------------------|------------------------|------------------------|
------------------------|------------------------|------------------------|
----------3----3--3-----|----------2----2--2--2--|---------------------0--|
----0--0-------------3--|----3--3----------------|--0----0--0----0--0-----|
------------------------|------------------------|------------------------|


                                                                           
------------------------|------------------------|------------------------|
------------------------|------------------------|------------------------|
----0--0--3----3--3-----|----------3----3--3-----|----------5----5--5--5--|
---------------------0--|----0--0-------------3--|----3--3----------------|
------------------------|------------------------|------------------------|


                                                                           
------------------------|------------------------|------------------------|
------------------------|------------------------|------------------------|
---------------------0--|----0--0--3----3--3-----|----------3----3--3-----|
--0----0--0----0--0-----|---------------------0--|----0--0-------------3--|
------------------------|------------------------|------------------------|


                                                                           
------------------------|------------------------|------------------------|
------------------------|------------------------|------------------------|
----------2----2--2--2--|---------------------0--|----0--0--3----3--3-----|
----3--3----------------|--0----0--0----0--0-----|---------------------0--|
------------------------|------------------------|------------------------|


      
----||
----||
----||
----||
----||

enjoy





Comments


Popular In Flames tabs & chords
Colony 1 Bass Tabs
Come Clarity 6 Tabs
Dismiss The Cynics Tabs
Everlost ( Part Ii ) Tabs
Kop Varm Korv Tabs
Lord Hypnos 1 Tabs
Reroute To Remain Intro Tabs
Suburban Me Tabs
Come Clarity Ukulele
Trigger Ukulele


Song lyrics



↑ Back to top | Tablatures and chords are parodies/interpretations of the original songs. You may use it for private study, scholarship, research or language learning purposes only
© 2014 AZChords.com Contact us | Privacy policy | DMCA | Add/correct tabs | Request tabs | Top 50 tabs