» » »

Trigger Tabs (ver.1)

Artists:  A B C D E F G H I J K L M N O P Q R S T U V W X Y Z # 

Trigger Tabs (ver.1)

In Flames
Rating:
0/5 (0 votes)

Hard to play? Try these video lessons and learn fast.
                                        Hello everybody!
 
                              This is a great song!

 Intro   00.00-00.21
   Guitar 1
 c|------------------------------------------------------------------------|
 G|------------------------------------------------------------------------|
Eb|------------------------------------------------------------------------|
Bb|------------------5-5-5-2--2-2-------------------7-7-7-4--4-4-----------|
 F|------------------3-3-3-0--0-0-------------------5-5-5-2--2-2-----------|
 C|--000-0-000-0-000----------------000-0-000-0-000------------------------|
     ... . ... . ...                ... . ... . ...
 c|------------------------------------------------------------------------|
 G|------------------------------------------------------------------------|
Eb|------------------------------------------------------------------------|
Bb|------------------5-5-5-2--2-2-------------------4-4-4-4--4-4-----------|
 F|------------------3-3-3-0--0-0---777-7-555-5-555-5-5-5-6--6-6-----------|
 C|--000-0-333-3-333-------------------------------------------------------|
     ... . ... . ...                ... . ... . ...
   Guitar 2
 c|------------------------------------------------------------------------|
 G|--7h8p7--------/12-10-8h10p7--7h8p7----/10-8-7--------------------------|
Eb|--------9---------------------------9----------9-7~---------------------|
Bb|----------9-10------------------------9---------------------------------|
 F|------------------------------------------------------------------------|
 C|------------------------------------------------------------------------|

 c|------------------------------------------------------------------------|
 G|--7h8p7--------/12-10-8h10p7--7h8p7----/10-8-7--------------------------|
Eb|--------9---------------------------9----------9-7~---------------------|
Bb|----------9-10------------------------9---------------------------------|
 F|------------------------------------------------------------------------|
 C|------------------------------------------------------------------------|
                                                         all this 2 times

 Riff    00.26-00.46
   Guitar 1
 c|------------------------------------------------------------------------|
 G|------------------------------------------------------------------------|
Eb|-----------------------------------------------4------------7-----------|
Bb|-----------------------------------4-5---------2------------5-----------|
 F|-------------------------7-5---5-7-------------2------------3-----7-5---|
 C|--000-000------000-000-------7---------000-000------000-000-----------7-|
     ... ...      ... ...                 ... ...      ... ...
 c|------------------------------------------------------------------------|
 G|------------------------------------------------------------------------|
Eb|-----------------------------------------------4------------7-----------|
Bb|-----------------------------------4-5---------2------------5-----------|
 F|-------------------------7-5---5-7-------------2------------3-----7-5---|
 C|--000-000------000-000-------7---------000-000------000-000-----------7-|
     ... ...      ... ...                 ... ...      ... ...

   Guitar 2
 c|------------------------------------------------------------------------|
 G|------------------------------------------------------------------------|
Eb|-------------------------------------4---------4------------7-----------|
Bb|-------------------------5-4---4-5-7-----------2------------5-----5-4---|
 F|-----------------------------5-----------------2------------3---------5-|
 C|--000-000------000-000-----------------000-000------000-000-------------|
     ... ...      ... ...                 ... ...      ... ...
 c|------------------------------------------------------------------------|
 G|------------------------------------------------------------------------|
Eb|-------------------------------------4---------4------------7-----------|
Bb|-------------------------5-4---4-5-7-----------2------------5-----5-4---|
 F|-----------------------------5-----------------2------------3---------5-|
 C|--000-000------000-000-----------------000-000------000-000-------------|
     ... ...      ... ...                 ... ...      ... ...  

 Riff    00.47-01.04
 c|------------------------------------------------------------------------|
 G|------------------------------------------------------------------------|
Eb|------------------------------------------------------------------------|
Bb|------------------------------------------------------------------------|
 F|------------------------------------------------------------------------|
 C|------------------------------------------------------------------------|


             not done yet
            
Hard to play? Try these video lessons and learn fast. | Correct




comments powered by Disqus
↑ Back to top | Tablatures and chords are parodies/interpretations of the original songs. You may use it for private study, scholarship, research or language learning purposes only