» » »

Trigger Bass tabs (ver.2)

Artists:  A B C D E F G H I J K L M N O P Q R S T U V W X Y Z # 

Trigger Bass tabs (ver.2)

In Flames
Rating:
0/5 (0 votes)

Hard to play? Try these video lessons and learn fast.
                Tuning: C F# Bb Eb

r=rest
~=let ring
/=slide

Tuning just slightly wrong, so i just modified it abit...

Intro
Eb|---------------------------------------------|
Bb|---------------------------------------------|
F#|-----------------7~-4~-----------------9~-4~-|
C |-4-3-3-3-4-3-4-3-------4-3-3-3-4-3-4-3-------|

Intro-2
Eb|---------------------------------------------|
Bb|---------------------------------------------|
F#|-----------------7~-4~-----------------7~-9~-|
C |-3-2-2-2-3-2-3-2-------5-4-4-4-5-4-5-4-------|

Intro
Eb|---------------------------------------------|
Bb|---------------------------------------------|
F#|-----------------7~-4~-----------------9~-4~-|
C |-4-3-3-3-4-3-4-3-------4-3-3-3-4-3-4-3-------|

Intro-2
Eb|---------------------------------------------|
Bb|---------------------------------------------|
F#|-----------------7~-4~-----------------7~-9~-|
C |-3-2-2-2-3-2-3-2-------5-4-4-4-5-4-5-4-------|

Verse x10
Eb|-------------------------|
Bb|-------------------------|
F#|-------------------------|
C |-0-0-0--0-0-0r-1-2~-1-2~-|

Pre Chorus-1
Eb|-----------------------------------------------------|
Bb|-----------------------------------------------------|
F#|-----------------------------------------------------|
C |-7-5--8-8--7-5--7-6--1-0-1-0-1-0-1-0-1-0-1-0-1-0-1-0-|

Pre Chorus-2
Eb|----------------------------------------|
Bb|----------------------------------------|
F#|----------------------------------------|
C |-7-5--8-8--7-5--7-6--1-2--0-2--1-3--0-2-|

Pre Chorus-1
Eb|-----------------------------------------------------|
Bb|-----------------------------------------------------|
F#|-----------------------------------------------------|
C |-7-5--8-8--7-5--7-6--1-0-1-0-1-0-1-0-1-0-1-0-1-0-1-0-|

Pre Chorus-3
Eb|---------------------------|
Bb|---------------------------|
F#|---------------------------|
C |-7-5--8-8--0-0-0-0-0-0-0-0-|

Verse x10
Eb|-------------------------|
Bb|-------------------------|
F#|-------------------------|
C |-0-0-0--0-0-0r-1-2~-1-2~-|

Pre Chorus-1
Eb|-----------------------------------------------------|
Bb|-----------------------------------------------------|
F#|-----------------------------------------------------|
C |-7-5--8-8--7-5--7-6--1-0-1-0-1-0-1-0-1-0-1-0-1-0-1-0-|

Pre Chorus-2
Eb|----------------------------------------|
Bb|----------------------------------------|
F#|----------------------------------------|
C |-7-5--8-8--7-5--7-6--1-2--0-2--1-3--0-2-|

Pre Chorus-1
Eb|-----------------------------------------------------|
Bb|-----------------------------------------------------|
F#|-----------------------------------------------------|
C |-7-5--8-8--7-5--7-6--1-0-1-0-1-0-1-0-1-0-1-0-1-0-1-0-|

Pre Chorus-4
Eb|--------------------------|
Bb|--------------------------|
F#|--------------------------|
C |-7-5--8-8--7-5-9-9-2/12/2-|

Chorus x2
Eb|---------------------------------------------------------------------------------|
Bb|---------------------------------------------------------------------------------|
F#|-------------4-4--------------------------------------4-4------------------------|
C |-2-2--2-2--2-----3-3--2-2--3-3--3-2--5-4--2-2--2-2--2-----3-3--2-2--3-3--1-0--3-2|


Verse x4
Eb|-------------------------|
Bb|-------------------------|
F#|-------------------------|
C |-0-0-0--0-0-0r-1-2~-1-2~-|

No Bass for 11 seconds

Chorus x2
Eb|---------------------------------------------------------------------------------|
Bb|---------------------------------------------------------------------------------|
F#|-------------4-4--------------------------------------4-4------------------------|
C |-2-2--2-2--2-----3-3--2-2--3-3--3-2--5-4--2-2--2-2--2-----3-3--2-2--3-3--1-0--3-2|

Solo Part
Eb|------------------------------------------------------------|
Bb|------------------------------------------------------------|
F#|----------7~-4~----------5~-7~---------7~-4~----------5~-9~-|
C |-4-0-3--4-------4-0-3--4-------4-0-3--4------4-0-3--4-------|

Bridge
Eb|----------------------------------------------------------|
Bb|----------------------------------------------------------|
F#|----------------------------------------------------------|
C |-2~~--1--0r--3--3r--5-5--3r--5--7r--3--0r--3--3r--5-5--7r-|

Bridge-2
Eb|---------------------------------------------|
Bb|---------------------------------------------|
F#|-----------------7~-4~-----------------9~-4~-|
C |-4-3-3-3-4-3-4-3-------4-3-3-3-4-3-4-3-------|

Bridge-3
Eb|---------------------------------------------|
Bb|---------------------------------------------|
F#|-----------------7~-4~-----------------7~-9~-|
C |-3-2-2-2-3-2-3-2-------5-4-4-4-5-4-5-4-------|

No Bass for 10 seconds

Add On
Eb|-----|
Bb|-----|
F#|-----|
C |-4/1-|

Chorus/Outro x8
Eb|---------------------------------------------------------------------------------|
Bb|---------------------------------------------------------------------------------|
F#|-------------4-4--------------------------------------4-4------------------------|
C |-2-2--2-2--2-----3-3--2-2--3-3--3-2--5-4--2-2--2-2--2-----3-3--2-2--3-3--1-0--3-2|

Quite challenging to play, but enjoy.
Rate this tab plz...
            
Hard to play? Try these video lessons and learn fast. | Correct




comments powered by Disqus
↑ Back to top | Tablatures and chords are parodies/interpretations of the original songs. You may use it for private study, scholarship, research or language learning purposes only