» » »

Cloud Connected Tabs (ver.1)

Artists:  A B C D E F G H I J K L M N O P Q R S T U V W X Y Z # 

Cloud Connected Tabs (ver.1)

In Flames
Rating:
0/5 (0 votes)

Hard to play? Try these video lessons and learn fast.
                Tab for Cloud Connected By In Flames
Off Reroute To Remain
Tuned (C F Bb Eb G C)
Here is the finished product in all its glory..
feel free to rate, correct, comment on me
yup thats all
 
 Q=190
(synth intro) (its some cr*p like this,
 i only tabbed it cus i know someone like me will want to play it)
|--0-0--0-0--0--0-0--0-|---0--0-0-0-0-0-0-0----|
|----------------------|-----------------------|
|----------------------|-----------------------|
|----------------------|-----------------------|
|----------------------|-----------------------|
|----------------------|-----------------------|
|
| Gtr II
|----------------------|-----------------------|
|----------------------|-----------------------|
|----------------------|-----------------------|
|----------------------|-----------------------|
|----------------------|-----------------------|
|-12---12---12-12---10-|-(10)------------------|

(intro riff)
|-------------|-------------|-------------|---------------|
|-------------|-------------|-------------|---------------|
|-------------|----------7--|-------------|---------------|
|-2--2---2--2-|-(2)------7--|-2--2---2--2-|-(2)-----9-7-9-|
|-2--2---2--2-|-(2)------5--|-2--2---2--2-|-(2)-----------|
|-0--0---0--0-|-(0)---------|-0--0---0--0-|-(0)-----------|
|
|-------------|-------------|-------------|---------------|
|-------------|-------------|-------------|---------------|
|-------------|----------7--|-------------|---------------|
|-2--2---2--2-|-(2)------7--|-2--2---2--2-|-(2)-----5-4-5-|
|-2--2---2--2-|-(2)------5--|-2--2---2--2-|-(2)-----------|
|-0--0---0--0-|-(0)---------|-0--0---0--0-|-(0)-----------|

  Gtrs I, II
(main riff)
|-----------------|-----------------|-----------------|-----------------|
|-----------------|-----------------|-----------------|-----------------|
|-----------------|-----------------|-----------------|-----------------|
|-------------5---|-4---------------|-------------5---|-4---------------|
|-7-----5-7-------|-----5-------5---|-7-----5-7-------|-----5-------5---|
|---0-0-----0---0-|---0---0-7-0---0-|---0-0-----0---0-|---0---0-7-0---0-|

(verse)
"People like you"
|-------------|-------------|-------------|---------------|
|-------------|-------------|-------------|---------------|
|-------------|-------------|-------------|---------------|
|-2--2---2--2-|-------------|-2--2---2--2-|---------------|
|-2--2---2--2-|-------------|-2--2---2--2-|---------------|
|-0--0---0--0-|-------------|-0--0---0--0-|---------------|

(3rd and + verses)
|-------------|-------------|-------------|---------------|
|-------------|-------------|-------------|---------------|
|-------------|----------7--|-------------|---------4-2-4-|
|-2--2---2--2-|----------7--|-2--2---2--2-|---------5-4-5-|
|-2--2---2--2-|----------5--|-2--2---2--2-|---------------|
|-0--0---0--0-|-------------|-0--0---0--0-|---------------|


(verse bridge)
|----------|----------|----------|------|
|----------|----------|----------|------|
|----------|-7--------|----------|------|
|-9--------|-7--------|-9--------|-9----|
|-7--------|-5--------|-7--------|-9----|
|-0--------|----------|-0--------|-7----|

(pre chorus)
"Sick and tired"
|-----------------|-----------------|-----------------|-----------|
|-----------------|-----------------|-----------------|-----------|
|-----------------|-----------------|-----------------|-7---------|
|-------------5---|-4---------------|-7-----5-7-------|-5----7----|
|-7-----5-7-------|-----5-------5---|---0-0-----0-0-0-|------5----|
|---0-0-----0---0-|---0---0-7-0---0-|-----------------|-----------|

(chorus)
"I've come to realize"
|----------|----------|----------|------------|
|----------|----------|----------|------------|
|----------|----------|----------|------------|
|-5--------|-9--------|-5--------|-7----9-7---|
|-5--------|-9--------|-5--------|-7----9-7---|
|-3--------|-7--------|-3--------|-5----7-5---|

and here i just realized that theres an octave thing in the background
i'll figure that out and add it tomorrow yup. maybe

(long chords before 2nd chorus)
after the "Time runs backwards"
|----------|----------|----------|
|----------|----------|----------|
|----------|----------|----------|
|-10-------|-9--------|-7--------|
|-10-------|-9--------|-7--------|
|-8--------|-7--------|-5--------|

(Bjorns Solo)(basically a bunch of bent C)
|---------------------------------10b12--10b12--------------------17-19-20-24---|
|--------------------------------------------------------17-19-20---------------|
|---------7b9=7pb9=7pb9=7pb9r7b9----------------16-18-19------------------------|
|-------------------------------------------------------------------------------|
|-5b7r5-------------------------------------------------------------------------|
|-------------------------------------------------------------------------------|

(Jespers Solo)(i think this is jespers solo, just repeat this and change it up a little,
 its fairly simple, its just hard as hell to hear)
 |-------------|------------|------------|-----------|
.|-3/5---------|-----5-7-8--|--7---5--0--|--1---3----|.
 |-------------|------------|------------|-----------|
.|-------------|------------|------------|-----------|.
 |-------------|------------|------------|-----------|
 |-------------|------------|------------|-----------|

(solo backing riff)
|-------------------------|
|-------------------------|
|-------------------------|
|-5----9----7--------4----|
|-3----7----5--------2----|
|-------------------------|

Tablature Legend
----------------
 h   - hammer-on
 p   - pull-off
 b   - bend
 pb  - pre-bend
 r   - bend release (if no number after the r, then release immediately)
            
Hard to play? Try these video lessons and learn fast. | Correct




comments powered by Disqus
↑ Back to top | Tablatures and chords are parodies/interpretations of the original songs. You may use it for private study, scholarship, research or language learning purposes only