>
 >
Spielmannsfluch

Spielmannsfluch Guitar Tabs

In Extremo - Spielmannsfluch chords, tabs, tablatures, lyrics

Guitar lessons | Add/correct | Request | Top 50 tabs Artists:  A B C D E F G H I J K L M N O P Q R S T U V W X Y Z 0-9

Spielmannsfluch Guitar Tabs – In Extremo

CD, Sheet music, Poster

Do you like Spielmannsfluch? Share with your friends now
Bass TabsChordsTabsTabs v2Ukulele
-------------------------------------------------------------------------------
                            In Extremo-Spielmannsfluch (Live 2002)
-------------------------------------------------------------------------------

Tuning: E A D G B e


Intro:

  Part 1:
e|---------------------------------------------------------------------------|
B|---------------------------------------------------------------------------|
G|XX-4h5p4------------------XX--4h5p4----------------------------------------|
D|---------5----XX-4h5p4---------------5---XX--4h5p4-------------------------|
A|-----------------------5-----------------------------5-4\2-----------------|
E|---------------------------------------------------------------------------|
   Part 2:
e|---------------------------------------------------------------------------|
B|---------------------------------------------------------------------------|
G|---------------------------------------------------------------------------|
D|-------9h10p9-------------4h5p4------------9h10p9-----------4h5p4----------|
A|--9-9---------10\----4-4---------5/----9-9--------10\---4-4-------5-4\2----|
E|--7-7----------------2-2---------------7-7--------------2-2----------------|
    . .                . .               . .              . .
     pm                 pm                pm               pm

Vers:

e|---------------------------------------|
B|---------------------------------------|
G|---------------------------------------|
D|---------------------2-2-2-------------| play it 4X
A|---9-9-9-9--9h10-----2-2-2-------------|
E|---7-7-7-7-----------0-0-0--2/3~-------|
     . . . .           . . .
        pm               pm

Fill at Vers:
e|------------------------------------------------------------------------|
B|------------------------------------------------------------------------|
G|------------------------------------------------------------------------|
D|--5--5/7---9-9-9---2--(2)-3--2-3-2---5--5/7--9-9-9--3--3-3-3-3-3-3------|
A|--5--5/7---9-9-9---2--(2)-3--2-3-2---5--5/7--9-9-9--3--3-3-3-3-3-3------|
E|--3--3/5---7-7-7---0--(0)-1--0-1-0---3--3/5--7-7-7--1--1-1-1-1-1-1------|
                                                         . . . . . .
                                                            pm

Pre-Chorus (Together with the bagpipes):
e|-----------------------|---------------------------------------------------|
B|-----------------------|---------------------------------------------------|
G|----------------------|-play 5X,then:--------------------------------------|
D|---7-7-7-7-7-7---7----|-----------------7-7-7-7-7-7--5/7-------------------|
A|---7-7-7-7-7-7---7----|-----------------7-7-7-7-7-7--5/7-------------------|
E|---5-5-5-5-5-5---5----|-----------------5-5-5-5-5-5--3/5-------------------|
     . . . . . .                          . . . . . .
        pm                                     pm
Chorus:
e|------------------------------------------------|
B|------------------------------------------------|
G|------------------------------------------------|
D|--7777777777777-55555555-7777777777-------------|
A|--7777777777777-55555555-7777777777-------------|
E|--5555555555555-33333333-5555555555-------------|


-Intro part 1       | -Intro part 2
-Intro part 2       | -Vers
-Vers               | -Fill at vers
-Fill at vers       | -Vers
-Vers               | -Pre-Chorus
-Pre-Chorus         | -Chorus
-Chorus             | -Chorus
-Intro part 2
-Vers
-Fill at vers
-Vers
-Pre-Chorus
-Chorus

| /  slide up
| \  slide down
| h  hammer-on
| p  pull-off
| ~  vibrato
| +  harmonic
| x  Mute note
===============================================================================





Comments


Popular In Extremo tabs & chords
Ai Vis Lo Lop Chords
KüSs Mich 1 Chords
PaläStinalied Chords
Vollmond Chords
Erdbeermund Tabs
Frei Zu Sein Tabs
In Extremo Tabs
Liam 1 Tabs
Merseburger Zaubersprueche I Tabs
Requiem Intro Tabs


Song lyrics



↑ Back to top | Tablatures and chords are parodies/interpretations of the original songs. You may use it for private study, scholarship, research or language learning purposes only
© 2014 AZChords.com Contact us | Privacy policy | DMCA | Add/correct tabs | Request tabs | Top 50 tabs