>
 >
Spielmannsfluch 2

Spielmannsfluch 2 Guitar Tabs

In Extremo - Spielmannsfluch 2 chords, tabs, tablatures, lyrics

Guitar lessons | Add/correct | Request | Top 50 tabs Artists:  A B C D E F G H I J K L M N O P Q R S T U V W X Y Z 0-9

Spielmannsfluch 2 Guitar Tabs – In Extremo

CD, Sheet music, Poster

Do you like Spielmannsfluch 2? Share with your friends now
Bass TabsChordsTabsTabs v2Ukulele






Gtr I (E A D G B E) - 'Untitled'

  Q=160
 4/4
  Gtr I
  Q Q Q Q   E E Q Q E E   E. S E E E. S E E   Q E E Q Q     Q Q Q E E
|---0---0-|-------------|-------------------|-0----------||-0-0-0-2-3-|--|
|---------|-3-1-0-----0-|-1--0-1---1--0-1---|---3-1-0---o||-----------|--|
|-2---2---|-------2-2---|--------2--------2-|---------2--||-----------|--|
|---------|-------------|-------------------|------------||-----------|--|
|---------|-------------|-------------------|-----------o||-----------|--|
|---------|-------------|-------------------|------------||-----------|--|


  Q Q Q Q   E. S E E E. S Q Q   Q Q H
|-5-0-0-0-|-------------0-----|-0-0---*|----|
|---------|-3--1-0-1-3----1-3-|-------*|----|
|---------|-------------------|-----2-*|----|
|---------|-------------------|-------*|----|
|---------|-------------------|-------*|----|
|---------|-------------------|-------*|----|



Duration Legend
---------------
W - whole; H - half; Q - quarter; E - 8th; S - 16th; T - 32nd; X - 64th; a - acciaccatura
+ - note tied to previous; . - note dotted; .. - note double dotted
Uncapitalized letters represent notes that are staccato (1/2 duration)
Irregular groupings are notated above the duration line
Duration letters will always appear directly above the note/fret number it represents the
duration for.  Duration letters with no fret number below them represent rests.  Multi-
bar rests are notated in the form Wxn, where n is the number of bars to rest for.  Low
melody durations appear below the staff

Tablature Legend
----------------
 h   - hammer-on
 p   - pull-off
 b   - bend
 pb  - pre-bend
 r   - bend release (if no number after the r, then release immediately)
 /\  - slide into or out of (from/to "nowhere")
 s   - legato slide
 S   - shift slide
 - natural harmonic
[n]  - artificial harmonic
n(n) - tapped harmonic
 ~   - vibrato
 tr  - trill
 T   - tap
 TP  - trem. picking
 PM  - palm muting
\n/  - tremolo bar dip; n = amount to dip
 \n  - tremolo bar down
 n/  - tremolo bar up
/n\  - tremolo bar inverted dip
 =   - hold bend; also acts as connecting device for hammers/pulls
 <> - volume swell (louder/softer)
 x   - on rhythm slash represents muted slash
 o   - on rhythm slash represents single note slash

Misc Legend
-----------
 |  - bar
||  - double bar
||o - repeat start
o|| - repeat end
*|  - double bar (ending)
 :  - bar (freetime)
 $  - Segno
 &  - Coda
Tempo markers -  = BPM(8/16=s8/s16), where s8 = swing 8ths, s16 = swing 16ths





Comments


Popular In Extremo tabs & chords
Spielmannsfluch Bass Tabs
Totus Floreo Bass Tabs
KüSs Mich Chords
Kuess Mich Chords
Ai Vis Lo Lop Tabs
Davert-tanz Tabs
In Extremo Tabs
Kss Mich Intro Tabs
Liam Tabs
Vollmond Ukulele


Song lyrics



↑ Back to top | Tablatures and chords are parodies/interpretations of the original songs. You may use it for private study, scholarship, research or language learning purposes only
© 2014 AZChords.com Contact us | Privacy policy | DMCA | Add/correct tabs | Request tabs | Top 50 tabs