» » »

In Extremo, Erdbeermund Tabs (ver.1)

Artists:  A B C D E F G H I J K L M N O P Q R S T U V W X Y Z # 

Erdbeermund Tabs (ver.1)

In Extremo Tabs
 Rating:
4.3/5 (6 votes)
Erdbeermund lessons Tabs too difficult? Try these video lessons and learn fast
                ----------------------------------------------------------------------------
----------------------------------------------------------------------------
Tuning: Normal


       Intro:
e|--------------------------------|
B|--------------------------------|
G|------5--4h5----------5--4---7--|
D|--5~----------3~---5~-----------|
A|--------------------------------|
E|--------------------------------|


       Riff 1:
e|--------------------------------------------------------------------|
B|--------------------------------------------------------------------|
G|--7-7-X--5-7-8-7--7--XX-5-XX-5-XX--7-7-X-5-7-8-7--7---XXXX-10XX-10--|
D|--7-7-X--5-7-8-7--7--XX-5-XX-5-XX--7-7-X-5-7-8-7--7---XXXX-10XX-10--|
A|--5-5-X--3-5-6-5--5--XX-3-XX-3-XX--5-5-X-3-5-6-5--5---XXXX-8-XX-8---|
E|--------------------------------------------------------------------| 

e|---------------------------------------------------------------|  
B|---------------------------------------------------------------|  
G|--7-7-X--5-7-8-7--7-----5----5-----7-7-X-5-7-8-7--7---XX-XXXX--|  
D|--7-7-X--5-7-8-7--7-----5----5-----7-7-X-5-7-8-7--7---XX-XXXX--|  
A|--5-5-X--3-5-6-5--5-----3----3-----5-5-X-3-5-6-5--5---XX-XXXX--|  
E|---------------------------------------------------------------|


       Verse: (Play 2 times)						
e|---------------------------------------------------------|
B|---------------------------------------------------------|
G|---------------------------------------------------------|
D|----------------------------8-8-XX-8-10--5-5--XXX-3-X-3--|
A|--5-5-X-3-5-6-5--5-XX-3-5-6------------------------------|
E|---------------------------------------------------------|

 
      Verse: (Distorted) (Play 2 times)					
e|---------------------------------------------------------|
B|---------------------------------------------------------|
G|--7-7-X-5-7-8-7--7-XX-5-7-8------------------------------|
D|--7-7-X-5-7-8-7--7-XX-5-7-8-8-8-XX-8-10--5-5--XXX-3-X-3--|
A|--5-5-X-3-5-6-5--5-XX-3-5-6-8-8-XX-8-10--5-5--XXX-3-X-3--|
E|----------------------------8-8-XX-8-10--5-5--XXX-3-X-3--|


      Chorus: (Play 2 times)	 
e|-------------------------------------------------------------------------|
B|-------------------------------------------------------------------------|
G|-------------------------------------------------------------------------|
D|--7777777777777777--5555555555555555--3333333333333333--7777777777777777-|
A|--7777777777777777--5555555555555555--3333333333333333--7777777777777777-|
E|--7777777777777777--5555555555555555--3333333333333333--7777777777777777-|


      Bridge: (Play 3 times)
e|----------------------------------------|
B|----------------------------------------|
G|----------------------------------------|
D|--3-X0---3-X0---3-X0--2222222222222222--|
A|--3-X0---3-X0---3-X0--2222222222222222--|
E|--3-X0---3-X0---3-X0--2222222222222222--|

e|------------------------------|------------------------------------|  
B|------------------------------|------------------------------------|  
G|------------------------------|------------------------------------|  
D|33333333-0-0-00000-333-33333-00-X0|333-33333-00-00000-222222222-XX2|  
A|33333333-0-0-00000-333-33333-00-X0|333-33333-00-00000-222222222-XX2|      
E|33333333-0-0-00000-333-33333-00-X0|333-33333-00-00000-222222222-XX2|
			 
e|----------------------|--------------------|
B|----------------------|--------------------|
G|----------------------|--------------------|
D|--33-333-5-0-0-00000--|--2222222222222222--|
A|--33-333-5-0-0-00000--|--2222222222222222--|
E|--33-333-5-0-0-00000--|--2222222222222222--|


      Outro:
e|--------------------------------------------------------------------|
B|--------------------------------------------------------------------|
G|--7-7-X--5-7-8-7--7--XX-5-XX-5-XX--7-7-X-5-7-8-7--7---X-X-10-10--7--|
D|--7-7-X--5-7-8-7--7--XX-5-XX-5-XX--7-7-X-5-7-8-7--7---X-X-10-10--7--|
A|--5-5-X--3-5-6-5--5--XX-3-XX-3-XX--5-5-X-3-5-6-5--5---X-X-8--8---5--|
E|--------------------------------------------------------------------|


      Order: 
      Intro
      Riff 1
      Verse
      Verse
      Chorus
      Bridge
      Outro


      Key:
| /  slide up
| \  slide down
| h  hammer-on
| p  pull-off
| ~  vibrato
| +  harmonic
| x  Mute note
============================================================================
            
Submit corrections

comments powered by Disqus
↑ Back to top | In Extremo Tabs for Erdbeermund. Lyrics for acoustic guitar and electric guitar. Tablatures and chords are parodies/interpretations of the original songs. You may use it for private study, scholarship, research or language learning purposes only