>
 >
Davert-tanz

Davert-tanz Guitar Tabs

In Extremo - Davert-tanz chords, tabs, tablatures, lyrics

Guitar lessons | Add/correct | Request | Top 50 tabs Artists:  A B C D E F G H I J K L M N O P Q R S T U V W X Y Z 0-9

Davert-tanz Guitar Tabs – In Extremo

CD, Sheet music, Poster

Do you like Davert-tanz? Share with your friends now
Tabs
In Extremo - Davert-Tanz

E||--5--5--5--3--5--7--8----|--5--7--8--10--12--10--8----|
B||-------------------------|----------------------------|
G||-------------------------|----------------------------|
D||-------------------------|----------------------------|
A||-------------------------|----------------------------|
E||-------------------------|----------------------------|

E||--5--5--5--3--5--7--8----|--5---8--7--5--3--5--5---|
B||-------------------------|-------------------------|
G||-------------------------|-------------------------|
D||-------------------------|-------------------------|
A||-------------------------|-------------------------|
E||-------------------------|-------------------------|

E||--12--14--15--14--12--14--15----|--7--7--7--5--3--5--7----|
B||--------------------------------|-------------------------|
G||--------------------------------|-------------------------|
D||--------------------------------|-------------------------|
A||--------------------------------|-------------------------|
E||--------------------------------|-------------------------|

E||--12--14--15--14--17-15--14--15---|--7--7--7--5--3--5--5----|
B||----------------------------------|-------------------------|
G||----------------------------------|-------------------------|
D||----------------------------------|-------------------------|
A||----------------------------------|-------------------------|
E||----------------------------------|-------------------------|

E||--5----12----10-8--10--12---|--5----12----10-8--7--5---|
B||----------------------------|--------------------------|
G||----------------------------|--------------------------|
D||----------------------------|--------------------------|
A||----------------------------|--------------------------|
E||----------------------------|--------------------------|


                                  Not sure...
E||--5----12----10-8--10--12---|--15--14--12--10--8--7--5--5--||
B||----------------------------|------------------------------||
G||----------------------------|------------------------------||
D||----------------------------|------------------------------||
A||----------------------------|------------------------------||
E||----------------------------|------------------------------||

    Dm                                     Asus4
E|--1--1--1--1--1--1--1--1--|--1--1--1--1--0----0----|--0--0--0--0--0--0--0--0--|
B|--3--3--3--3--3--3--3--3--|--3--3--3--3--3----3----|--3--3--3--3--3--3--3--3--|
G|--2--2--2--2--2--2--2--2--|--2--2--2--2--2----2----|--2--2--2--2--2--2--2--2--|
D|--------------------------|------------------------|--------------------------|
A|--------------------------|------------------------|--------------------------|
E|--------------------------|------------------------|--------------------------|


                D5
E|--0--0--0--0------------|--17----15----13--------|--13----15----12--------|
B|--3--3--3--3--3----3----|------------------------|------------------------|
G|--2--2--2--2--2----2----|------------------------|------------------------|
D|--------------0----0----|------------------------|------------------------|
A|------------------------|------------------------|------------------------|
E|------------------------|------------------------|------------------------|

E|--17----15----12--------|--12----8----10--------|--10----12----13--------|
B|------------------------|-----------------------|------------------------|
G|------------------------|-----------------------|------------------------|
D|------------------------|-----------------------|------------------------|
A|------------------------|-----------------------|------------------------|
E|------------------------|-----------------------|------------------------|


E|--13----15----12--------|--15----13----12--------|--12----8----10--------|
B|------------------------|------------------------|-----------------------|
G|------------------------|------------------------|-----------------------|
D|------------------------|------------------------|-----------------------|
A|------------------------|------------------------|-----------------------|
E|------------------------|------------------------|-----------------------|


I know that it's not perfect, but I think that this tab is better than no tab at all ;-)

2009-01-17





Comments


Popular In Extremo tabs & chords
Totus Floreo Bass Tabs
Ai Vis Lo Lop Chords
PaläStinalied Chords
In Extremo Tabs
Liam Tabs
Liam 1 Tabs
Requiem Intro Tabs
Tanz Mit Mir Tabs
Frei Zu Sein Ukulele
Pavane Ukulele


Song lyrics



↑ Back to top | Tablatures and chords are parodies/interpretations of the original songs. You may use it for private study, scholarship, research or language learning purposes only
© 2014 AZChords.com Contact us | Privacy policy | DMCA | Add/correct tabs | Request tabs | Top 50 tabs