» » »

In Extremo, Spielmannsfluch Bass tabs (ver.1)

Artists:  A B C D E F G H I J K L M N O P Q R S T U V W X Y Z # 

Spielmannsfluch Bass tabs (ver.1)

In Extremo Tabs
Rating:
0/5 (0 votes)
Spielmannsfluch lessons Tabs too difficult? Try these video lessons and learn fast
                I think the Chorus is wrong...I wrote that, what I think would fit in pretty good...

Intro:
|----------------------|
|----------------------|
|----------------------|
|-------00----------00-|
|-00----------00-------|

Verse:
|-----------------------|
|---4-------(2)-5p4-----|
|-2---2-4-5---------5-4-|
|-----------------------| 6x
|-----------------------|

Interlude:
|-----------------------------------|
|-----------------------------------|
|------222--------------222---------|
|-3-33----0-000000-3-33----1-111111-|
|-----------------------------------|

Verse 4x

Bridge:
|-----------------------|
|-----------------------|
|-00000005h7-00000005h6-|
|-----------------------| 8x
|-----------------------|

Chorus: 
|---------------------------------|
|---------------------------------|
|---------------------------------| 2x
|-5-------5-------3-------5-------|
|---2-3-5---2-5-2---0-1-3---2-5-2-|
 

Verse 6x

Interlude

Verse 4x

Bridge 8x

Chorus 2x

Verse 6x

Interlude

Verse 4x

Bridge 8x

Chorus 4x

Last Chorus: 
|---------------------------------|
|---------------------------------|
|---------------------------------| 2x
|-5-------5-------3-------5-5-5-5-|
|---2-3-5---2-5-2---0-1-3---------|
            

comments powered by Disqus
↑ Back to top | In Extremo Bass for Spielmannsfluch. Lyrics for acoustic guitar and electric guitar. Tablatures and chords are parodies/interpretations of the original songs. You may use it for private study, scholarship, research or language learning purposes only