» » »

Zee Deveel Bass tabs (ver.1)

Artists:  A B C D E F G H I J K L M N O P Q R S T U V W X Y Z # 

Zee Deveel Bass tabs (ver.1)

Incubus
Rating:
0/5 (0 votes)

Hard to play? Try these video lessons and learn fast.
                zee deveel
THIS IS ONLY BASIC! MAKE A REAL TAB OFF THIS!
inclazybus

intro

---------------------------------------------
------------p------6-------------------------
----------------4-4-4------------------------
---3-3-3--4---4------------------------------

pre chorus

------------------------------------------------
--------------------4---------------------------
---4---0----4---0-------------------------------
-----------------------------------------------

chorus you should be careful

---------------------------------------------
----------------------------------------------
-------6--------------------------------------
---0-------5---4------------------------------


bit after solo (Chords)

--------------------------------------------
--------------------------------------------
---------4----------------------------------
---3--0-----4-------------------------------
            
Hard to play? Try these video lessons and learn fast. | Correct




comments powered by Disqus
↑ Back to top | Tablatures and chords are parodies/interpretations of the original songs. You may use it for private study, scholarship, research or language learning purposes only