» » »

Incubus, Warmth Acoustic Lounge Tabs (ver.1)

Artists:  A B C D E F G H I J K L M N O P Q R S T U V W X Y Z # 

Warmth Acoustic Lounge Tabs (ver.1)

Incubus Tabs
Rating:
0/5 (0 votes)
Hard to play? Try these video lessons and learn fast.
                this is the version that is on the "incubus volume 2" DVD.  it sounds pretty rad...so have fun dude!

: intro :
|---------------------------------------------------------------| 
|---------------------------------------------------------------| 
|-12/9--9-9-9-9-x-x--9--9--9---9--9---4--4-4-4-4-4-4-x-x--0-0-0-| 
|--x/x--x-x-x-x-x-x--10-10-10--10-10--5--5-5-5-5-5-5-x-x--4-4-4-|   : repeat :
|-10/7--7-7-7-7-x-x--10-10-10--10-10--5--5-5-5-5-5-5-x-x--2-2-2-| 
|--0/0--0-0-0-0-x-x--8--8--8---8--8---3--3-3-3-3-3-3-x-x--0-0-0-| 

then..

|-12--12-12-12-12-12-12-x-x--8-8-8--8-8--3--3-3-3-3-3-3p0-0-0-0-3p0-0-0-| 
|-12--12-12-12-12-12-12-x-x--8-8-8--8-8--3--3-3-3-3-3-3p0-0-0-0-3p0-0-0-| 
|--9---9--9--9--9--9--9-x-x--5-5-5--5-5--0--0-0-0-0-0-0-----------------|    :repeat:
|--9---9--9--9--9--9--9-x-x--5-5-5--5-5--0--0-0-0-0-0-0-----------------| 
|-----------------------------------------------------------------------| 
|-----------------------------------------------------------------------| 

: chorus :
|---------------------------------------------------------------| 
|---------------------------------------------------------------| 
|-9--9-9-9-9-9-9-x-x--9--9--9---9--9---4--4-4-4-4-4-4-x-x-----0-| 
|-9--9-9-9-9-9-9-x-x--10-10-10--10-10--5--5-5-5-5-5-5-x-x-----4-| 
|-7--7-7-7-7-7-7-x-x--10-10-10--10-10--5--5-5-5-5-5-5-x-x-----2-| 
|-0--0-0-0-0-0-0-x-x--8--8--8---8--8---3--3-3-3-3-3-3-x-x-0-0-0-| 

: interlude thing :  this part is a b**ch to get the rythm...listen to it and you'll get it.  its all hammers and pull offs
|---------------------------------|
|---------------------------------|
|---------------------------------|
|-9p7-9p7-9p7-9-9p7-9-9p7-9p7-9p7-|  : repeat a few times :
|-9p7-9p7-9p7-9-9p7-9-9p7-9p7-9p7-|
|---------------------------------|


thats pretty much it...listen to the song a few times to get the strumming and what-not down.
            

comments powered by Disqus
↑ Back to top | Incubus Tabs for Warmth Acoustic Lounge. Lyrics for acoustic guitar and electric guitar. Tablatures and chords are parodies/interpretations of the original songs. You may use it for private study, scholarship, research or language learning purposes only