» » »

Turning Japanese Tabs (ver.1)

Artists:  A B C D E F G H I J K L M N O P Q R S T U V W X Y Z # 

Turning Japanese Tabs (ver.1)

Incubus
Rating:
0/5 (0 votes)

Hard to play? Try these video lessons and learn fast.
                band-incubus
song-turning japanese

Intro:

E|----------------------||
B|--8-8-8-8-6-6-----5-6-||
G|--7-7-7-7-5-5-7-7-5-6-||    
D|--------------7-7-----||
A|----------------------||
E|----------------------||

Verse:

E|-------------------8-7--------------------------||
B|-----------------------8------------------------||
G|------------------------------------------------||
D|-5-5-5-5-5-5-5-5-5-------2-2-2-2-2-2-2-2-0-0-1-2||
A|-5-5-5-5-5-5-5-5-5-------2-2-2-2-2-2-2-2--------||
E|-3-3-3-3-3-3-3-3-3-------0-0-0-0-0-0-0-0--------||

Pre Chorus:

E|------------------------------||
B|------------------------------||
G|-2-2-2-2-5-5-7-7--------------||
D|-2-2-2-2-5-5-7-7--------------||
A|-0-0-0-0-3-3-5-5--------------||
E|------------------------------||

Chorus:

E|------------------------------------------------||
B|------------------------------------------------||
G|-------------------------------7-7-----5-7-5-6--||
D|-5-5-5-5-5-5-5-5-5-5-5-5-5-5-5-7-7-5-7---------7||
A|-5-5-5-5-5-5-5-5-5-5-5-5-5-5-5-5-5--------------||
E|-3-3-3-3-3-3-3-3-3-3-3-3-3-3-3------------------||

E|----------------------------------------------||
B|----------------------------------------------||
G|-10-10-10-10-10-10-10-10-10-10-10-10-10-10-10-||
D|-10-10-10-10-10-10-10-10-10-10-10-10-10-10-10-||
A|-8--8--8--8--8--8--8--8--8--8--8--8--8--8--8--||
E|----------------------------------------------||

E|-----------------------------||
B|-----------------------------||
G|-5-5-----3-5-3-2--------------||
D|-5-5-3-5-------5-5------------||
A|-3-3-------------------------||
E|-----------------------------||

After Chorus:

E|-----------------------------||
B|-----------------------------||
G|-----------------------------||
D|-5-4-3-4---------------------||
A|-5-4-3-4---------------------||
E|-3-2-1-2---------------------||

Bridge:

E|---------------------------------------||
B|---------------------------------------||
G|-5-9-9-7-5-5-9-9-7-7-7-5-9-9-7-5-5-9-7-||
D|-5-9-9-7-5-5-9-9-7-7-7-5-9-9-7-5-5-9-7-||
A|-3-7-7-5-3-3-7-7-5-5-5-3-7-7-5-3-3-7-5-||
E|---------------------------------------||

Solo:

E|-12-10-12-10----10--------------------------------||
B|-------------12---12-12-10----10-10----10---------||
G|---------------------------12-------12----12-9-12-||
D|--------------------------------------------------||
A|--------------------------------------------------||
E|--------------------------------------------------||

E|--------------------------------------------------||
B|--------------------------------------------------||
G|---5-7-9-10-12------------------------------------||
D|-5------------------------------------------------||
A|--------------------------------------------------||
E|--------------------------------------------------||

Order:

Intro x2
Verse x2
Pre Chorus
Verse x2
Pre Chorus
Verse x2
Pre Chorus
Bridge
Intro
Verse x2
Pre Chorus
Chorus x2
After Chorus
Bridge
Intro 
Verse x2
Pre Chorus
Chorus x2

Next there is a funny bit which is basically the chorus
with pauses in-between at a slower tempo. Just listen
to the song to work it out. If you have problems email

Chorus
Solo x2
Chorus
Chorus + Solo
After Chorus x2

END - Well there you have it, sounds right to me so
      enjoy...
            
Hard to play? Try these video lessons and learn fast. | Correct




comments powered by Disqus
↑ Back to top | Tablatures and chords are parodies/interpretations of the original songs. You may use it for private study, scholarship, research or language learning purposes only