» » »

Incubus, The Warmth Tabs (ver.5)

Artists:  A B C D E F G H I J K L M N O P Q R S T U V W X Y Z # 

The Warmth Tabs (ver.5)

Incubus Tabs
Rating:
0/5 (0 votes)
The Warmth lessons Tabs too difficult? Try these video lessons and learn fast
                (2)
Incubus - The Warmth (acoustic)

This is exactly the way that he plays it on their volume 2 DVD. It has the band and all, but he uses an acoustic guitar. so this is what he plays. Its standard tuning.

This part comes in while during the whale noises, or whatever they are, are playing.

Verse
-------------------------------------
-------------------------------------
--11--/---9b--99-999-----------44----
---x------x---xx-xxx----777----44----
---9--/---7b--77-777----555----22----
-----------------888--3-333--0-------
play this part choppy (mute and unmute when neccesary)

Used after the verse (and in chorus)
----------------------------------
--17-/-13----8-/-5----------------
--16-/-12----7-/-4----------------
----------------------------------
----------------------------------
----------------------------------
Listen to song to get the rhythm for that

Do the verse again for this part. ("I'd like to close my eyes and go numb")

Then do the chorus ("So dont let the world bring you down")

Repeat those steps, and after the second chorus he does this
----------------------------------------
----------------------------------------
----------------------------------------
--9p7--9p7--9p7--9-9p7--9p7--9-9p7--9p7-
--9p7--9p7--9p7--9-9p7--9p7--9-9p7--9p7-
----------------------------------------

Every now and then during that part he does this
---------------
---------------
---------------
--9h10--9h10---
--9h10--9h10---
---------------

For the last chorus he does this, fully strumming
------------------------
------------------------
-99-999-----------44----
-xx-xxx----777----44----
-77-777----555----22----
----888----333----------

After the last chorus, he does the first verse till the song is over.
            
Submit corrections

comments powered by Disqus
↑ Back to top | Incubus Tabs for The Warmth. Lyrics for acoustic guitar and electric guitar. Tablatures and chords are parodies/interpretations of the original songs. You may use it for private study, scholarship, research or language learning purposes only