» » »

Incubus, Speak Free Tabs (ver.1)

Artists:  A B C D E F G H I J K L M N O P Q R S T U V W X Y Z # 

Speak Free Tabs (ver.1)

Incubus Tabs
 Rating:
4/5 (4 votes)
Speak Free lessons Tabs too difficult? Try these video lessons and learn fast
                standard tuning, pretty easy song.

-|-------------------------------------------|--------------------------------
-|-------------------------------------------|--------------------------------
-|-------------------------------------------|--------------------------------
-|-------------------------------------------|-5-5-5--2-----------------------
-|--7-6-5---5--------------------------------|-5-5-5--2-----------------------
-|--------7---7-6-5-3-6-5-3--5-3-0-0---------|-3-3-3--0-----------------------
 play with distortion            x4   and at the end of fourth one            

-|----------------------------|---------------------|-------------------------
-|----------------------------|---------------------|-------------------------
-|-xxxx-9-7-7-9-xxxx-9-7------|---------------------|-------------------------
-|-xxxx-9-7-7-9-xxxx-9-7-7-5--|------7--------5-5-2-|-------------------------
-|-xxxx-7-5-5-7-xxxx-7-5-7-5--|--7-9---7-0----5-5-2-|-------------------------
-|-----------------------5-3--|---------------3-3-0-|-------------------------
  verse: this 4 times,      this fill then play the 1st part 4 more times     

-|----------------------------------------------------------------------------
-|----------------------------------------------------------------------------
-|----9---------9-7--------9---------9----------------------------------------
-|--9-9-9-7-8-9-9-7------9-9-9-7-8-9-9-7--------------------------------------
-|--9-7-9-7-8-9-7-5------9-7-9-7-8-9-7-7--------------------------------------
-|--7---7-5-6-7----------7---7-5-6-7---5--------------------------------------
        chorus!                         x2, then back to the verse
            
Submit corrections

comments powered by Disqus
↑ Back to top | Incubus Tabs for Speak Free. Lyrics for acoustic guitar and electric guitar. Tablatures and chords are parodies/interpretations of the original songs. You may use it for private study, scholarship, research or language learning purposes only