>
 >
Sink Beneath The Light

Sink Beneath The Light Bass Tabs

Incubus - Sink Beneath The Light chords, tabs, tablatures, lyrics

Guitar lessons | Add/correct | Request | Top 50 tabs Artists:  A B C D E F G H I J K L M N O P Q R S T U V W X Y Z 0-9

Sink Beneath The Light Bass Tabs – Incubus

CD, Sheet music, Poster

Do you like Sink Beneath The Light? Share with your friends now
Bass Tabs
intro:

g-------------------------------------------5--5-4-3-0h3h4--------------------------
d-------------5-0-5-4-3-1-----------3h5------------------------------------5--5-4-3
a-3p0-3h5------------------0h3h5-------------------------------------3h5---------
e----------------------------------------------------------------0h3h5---------------
                  p  p  p 
g--------------5--5-4-3-
d-1------3h5------------
a----3h5-----------------
e-------------------------

chorus:

g------------------------------------5--5-4-3-0h3h4----------------------------------
d------------5--5-4-3-1------3h5-----------------------------5---5-4-3-1-------3h5
a-------3h5--------------3h5-----------------------------3h5----------------3h5-----
e--3h5-----------------------------------------------3h5-------------------------------
      
g-5--5-4-3
d-----------
a-----------
e-----------
verse:

                       p s   p s   p s     p s   p
g----------------------------------------------------
d----------------------7-----7-----9------10----11
a-----------------7/9--------------------------------
e---12*/---5h7----------5-----7------8------9---- 
                     s  s   p        p p  p
g------------6------------x1-2-4x
d--------------------x4x----------
a-------7/9------------------------
e-5h7----------2-2---------------

then chorus x1
then verse   x1
then chorus x1

then
bridge:
g---5-4-3-543-5-4-3-543-------------------------------------------------------------
d----------------------------------5p3p0-------------5p3p0-------------------5p3p0---
a------------------------------------------------------------------------------------
e----------------------------------------1/3--4--5----------1/3--4--5---------------

g----------7-7-7---------------------------------------------------------------------
d----5p3p0----------0*-----5p3---3p0------5p3*---------------------------------------
a----------------------------------------------------------------------5-5-5-5-------
e-----------------------------------------------------------------------------3-3-3-3

g------------------------------------------------------------------------------------
d-------------------------------------------/7-8-9------------/7-8-9-------/7-8-9
a------------5-5-5-5-----------------------------------------------------------------
e-0-0-0-0-------------3-3-3-3--0-0-0-0--------------------------------------------

g--------------------------------------
d--------------------------------------
a------------5------5-----5------5-----
e-------5h7----5h7----5h7----5h7--------

solo:
     s    s    p  p p p p s p   p   p   p p p p        s    s   p    p p p p  s     p    
g------------------------------------5--5-4-3-0h3h4----------------------------------
d------------5--5-4-3-1------3h5-----------------------------5---5-4-3-1-------3h5
a-------3h5--------------3h5-----------------------------3h5----------------3h5-----
e--3h5-----------------------------------------------3h5-----------------------------
    p p p p  
g-5--5-4-3
d-----------
a-----------
e-----------

then the chorus ending with:

g---5-4-3-543--5-4-3-543--5-4-3-543-5-4-3-54.
d-------------------------------------------------------
a-------------------------------------------------------
e--------------------------------------------------------





Comments


Popular Incubus tabs & chords
Admiration Bass Tabs
Hilikus Bass Tabs
Blood On The Ground 2 Tabs
Calgone Tabs
Lets Go Crazy 1 Tabs
Tomorrows Food Tabs
Trouble In 421 Tabs
Warning 3 Tabs
While All The Vultures Feed Tabs
Earth To Bella Part 1 Ukulele


Song lyrics



↑ Back to top | Tablatures and chords are parodies/interpretations of the original songs. You may use it for private study, scholarship, research or language learning purposes only
© 2014 AZChords.com Contact us | Privacy policy | DMCA | Add/correct tabs | Request tabs | Top 50 tabs