>
 >
Psychopsilocybin

Psychopsilocybin Guitar Tabs

Incubus - Psychopsilocybin chords, tabs, tablatures, lyrics

Guitar lessons | Add/correct | Request | Top 50 tabs Artists:  A B C D E F G H I J K L M N O P Q R S T U V W X Y Z 0-9

Psychopsilocybin Guitar Tabs – Incubus

CD, Sheet music, Poster

Do you like Psychopsilocybin? Share with your friends now
Tabs
song-psychocylocobin
band-incubus
album-fungus amungus
there are no other versions of this on the net so here r sum of the riffs from this phat song 

main riff/0:00/wah pedal


e---5-x-x-x-5--5-x-x-x-5-xxx-7x7---
b---6-x-x-x-6--6-x-x-x-6-xxx-8x8---
g---5-x-x-x-5--5-x-x-x-5-xxx-7x7---
d----------------------------------
a----------------------------------
e----------------------------------


pre chorus/0:22/distortion/palm muted            chorus/0:24/distortion


e-------------------                             e-------3-3-3-3---
b-------------------                             b-------3-3-3-3---
g---7-5-------------                             g-------x-x-x-x---
d---7-5-7-5-5-4-2---                             d---2-2-2-2-2-2---
a---5-3-7-5-5-4-2---                             a---2-2-2-2-2-2---
e---5-3-5-3-3-2-0---                             e---0-0-0-0-0-0---


solo 1/0:57/distortion


e--------------------------------------------------------
b---10^-10p8---8-----------15p12-15p12-14----------------
g------------9---9-7h9-9---------------------------------
d--------------------------------------------------------
a--------------------------------------------------------
e------------------------0-------------------------------


e---15-0-0-15-0-0-17-0-0-15-0-0-17-0-0-15-0-0-15h17-15---
b--------------------------------------------------------
g--------------------------------------------------------
d--------------------------------------------------------
a--------------------------------------------------------
e--------------------------------------------------------


e---19p17p15-15h17p15-14h15p14---------------------------
b------------------------------15h17p15-14h15p14---------
g--------------------------------------------------------
d--------------------------------------------------------
a--------------------------------------------------------
e--------------------------------------------------------


e---------------------15---------------------------------
b---15-14-12-12-12-14------------------------------------
g--------------------------------------------------------
d-------------------------<7^>---------------------------
a--------------------------------------------------------
e--------------------------------------------------------


verse/1:14/wah pedal


e-------------------------------------------
b-------------------------------------------
g-------------------------------------------
d---7-7-xxxx-8-8-xxxx-9-9-xxxx-10-10-xxxx---
a---7-7-xxxx-8-8-xxxx-9-9-xxxx-10-10-xxxx---
e---5-5-xxxx-6-6-xxxx-7-7-xxxx-8--8--xxxx---

verse 2/2:07/harmonizer


e---5xx-5-5-5-5-x-4x-4-4-4-4-5xx-5-5-5-5-x-6x-6-6-6-6---
b---5xx-5-5-5-5-x-4x-4-4-4-4-5xx-5-5-5-5-x-6x-6-6-6-6---
g---5xx-5-5-5-5-x-4x-4-4-4-4-5xx-5-5-5-5-x-6x-6-6-6-6---
d-------------------------------------------------------
a-------------------------------------------------------
e-------------------------------------------------------


solo 3/3:39/distortion


e------------------------------------------------------------------------------------------
b------------------------------------------------------------------------------------------
g---10^-10p8---8---------------------------------------------------------------------------
d------------9---9-7h9-9-9-9-7-6-7-9-7-----------------------------------------------------
a------------------------------------------------------------------------------------------
e------------------------------------------------------------------------------------------


e---12-12-15-12-12-17-12-12-18-12-12-17-12-12-15-12-12-12----------------------------------
b---------------------------------------------------------12h15p12-12h15p12-12h15p12-15^---
g------------------------------------------------------------------------------------------
d------------------------------------------------------------------------------------------
a------------------------------------------------------------------------------------------
e------------------------------------------------------------------------------------------


e-----17^-17-15-------17----15----14----15----14-------------------------------------------
b---------------17-15----15----15----15----15-------15h17^-15h17^--------------------------
g------------------------------------------------------------------------------------------
d------------------------------------------------------------------------------------------
a------------------------------------------------------------------------------------------
e---0---------------------------------------------0----------------------------------------





Comments


Popular Incubus tabs & chords
Are You In? Bass Tabs
The Warmth Bass Tabs
Pantomime Chords
Adolescents 1 Tabs
Echo 4 Tabs
Out From Under 1 Tabs
Southern Girl 4 Tabs
Stellar - 3 Tabs
Wish You Were Here 1 Tabs
Turning Japanese Ukulele


Song lyrics



↑ Back to top | Tablatures and chords are parodies/interpretations of the original songs. You may use it for private study, scholarship, research or language learning purposes only
© 2014 AZChords.com Contact us | Privacy policy | DMCA | Add/correct tabs | Request tabs | Top 50 tabs