>
 >
Pendulous Threads

Pendulous Threads Guitar Tabs

Incubus - Pendulous Threads chords, tabs, tablatures, lyrics

Guitar lessons | Add/correct | Request | Top 50 tabs Artists:  A B C D E F G H I J K L M N O P Q R S T U V W X Y Z 0-9

Pendulous Threads Guitar Tabs – Incubus

CD, Sheet music, Poster

Do you like Pendulous Threads? Share with your friends now
ChordsTabsUkulele
Incubus 
Pendulous Threads 
Standard Tuning 

Updated - 4.17.07 (Fixed intro, as close as I can get w/out a Ring Mod)

* = fast strum

  Intro (Ring Mod & Phaser)
||-----------------------------------------|
||-----------------------------------------|
||-----------------------------------------|
||-----------16------------------16----16--|
||-------------------------14-12---(12)----|
||--0-0-15-0----12-0-15-12-----------------|

|-----------------------------------------||
|-----------------------------------------||
|-----------------------------------------||
|-----------16------------------16----16--||
|-------------------------14-12---(12)----||
|--0-0-15-0----12-0-15-12-----------------||
   
 Chorus 
|----------------|----------------|----------------|----------------| 
|-----8---8------|-----8---8------|-----8---8------|-----8---8------| 
|-----9---9--x-x-|-x---9-x-9--x-x-|-x-x-9-x-9--x-x-|-x-x-9---9--x---| 
|-----9---9--x-x-|-x---9-x-9--x-x-|-x-x-9-x-9--x-x-|-x-x-9---9--x---| 
|-----7---7--x-x-|-x---7-x-7--x-x-|-x-x-7-x-7--x-x-|-x-x-7---7--x---| 
|-0-0------------|---0------------|----------------|--------------5/| 

|-----------------|--------------------|-----------------|-------------------| 
|-----------------|--------------------|-----------------|-------------------| 
|-----7-----7---7-|-(7)---7-------7\---|-----3-----3-----|---------------0-0-| 
|-----------------|--------------------|---------------5-|-(5)-5-5-5-5-5-0-0-| 
|-----------------|--------------------|---------------5-|-(5)-5-5-5-5-5-0-0-| 
|-7-7---7-7---7---|-----7----7-7-(7)\--|-3-3---3-3---3-3-|-(3)-3-3-3-3-3-----| 

|----------------|----------------|----------------|----------------| 
|-----8---8------|-----8---8------|-----8---8------|-----8---8------| 
|-----9---9--x-x-|-x---9-x-9--x-x-|-x-x-9-x-9--x-x-|-x-x-9---9--x---| 
|-----9---9--x-x-|-x---9-x-9--x-x-|-x-x-9-x-9--x-x-|-x-x-9---9--x---| 
|-----7---7--x-x-|-x---7-x-7--x-x-|-x-x-7-x-7--x-x-|-x-x-7---7--x---| 
|-0-0------------|---0------------|----------------|--------------5/| 
 
|-----------------|---------------------| 
|-----------------|---------------------| 
|-----7-----7---7-|-(7)---7/11-11\7-7---| 
|-----------------|---------------------| 
|-----------------|---------------------| 
|-7-7---7-7---7---|-----7-------------7\| 
 
|-----------------|-----------14-14-14-14-14-14---|| 
|-----------------|-----------12-12-12-12-12-12---|| 
|-----3-----3-----|-----------14-14-14-14-14-14---|| 
|---------------5-|-(5)-5-5-5---------------------|| 
|---------------5-|-(5)-5-5-5---------------------|| 
|-3-3---3-3---3-3-|-(3)-3-3-3---------------------|| 


 Verse 1
|---14-x-x-14-x--x-14-|---14-x-14-14-14-14-14-14-14-| 
|---12-x-x-12-x--x-12-|---12-x-12-12-12-12-12-12-12-| 
|---14-x-x-14p12-x-14-|---14-x-14-14-14-14-14-14-14-| 
|---------------------|-----------------------------| 
|---------------------|-----------------------------| 
|---------------------|-----------------------------| 

|---14-x-14-14-x-x-14-|---14-x-14-14-14-14-14-14-14-| 
|---12-x--x-12-x-x-12-|---12-x-12-12-12-12-12-12-12-| 
|---12-x-12-12-x-x-12-|---12-x-12-12-12-12-12-12-12-| 
|---------------------|-----------------------------| 
|---------------------|-----------------------------| 
|---------------------|-----------------------------| 

|---14-x-x-14-x-x-14-|---14-x-14-14-14-14-14-14-14-| 
|---12-x-x-12-x-x-12-|---12-x-12-12-12-12-12-12-12-| 
|---14-x-x-14-x-x-14-|---14-x-14-14-14-14-14-14-14-| 
|--------------------|-----------------------------| 
|--------------------|-----------------------------| 
|--------------------|-----------------------------| 


 
|---14-x-14-14-14-14-14-|---14-x-14-14-14-14-14-14-14-| 
|---12-x-12-12-12-12-12-|---12-x-12-12-12-12-12-12-12-| 
|---12-x-12-12-12-12-12-|---12-x-12-12-12-12-12-12-12-| 
|-----------------------|-----------------------------| 
|-----------------------|-----------------------------| 
|-----------------------|-----------------------------| 
 
|---14-x-x-14-x-x-14-|---14-x-14-14-14-14-14-14-14-| 
|----x-x-x--x-x-x--x-|----x-x--x--x--x--x--x--x--x-| 
|----x-x-x--x-x-x--x-|----x-x--x-12-12-12-12-12-12-| 
|---14-x-x-14-x-x-14-|---14-x-14-14-14-14-14-14-14-| 
|--------------------|-----------------------------| 
|--------------------|-----------------------------| 
 
|---14-x-14-14-x-x-14-|---14-x-14-14-14-14-14-14-14-| 
|---12-x--x-12-x-x-12-|---12-x-12-12-12-12-12-12-12-| 
|---12-x-12-12-x-x-12-|---12-x-12-12-12-12-12-12-12-| 
|---------------------|-----------------------------| 
|---------------------|-----------------------------| 
|---------------------|-----------------------------| 
 
|---14-x-x-14-x-x-14-|---14-x-14-14-14-14-14-14-14-| 
|---12-x-x-12-x-x-12-|---12-x-12-12-12-12-12-12-12-| 
|---14-x-x-14-x-x-14-|---14-x-14-14-14-14-14-14-14-| 
|--------------------|-----------------------------| 
|--------------------|-----------------------------| 
|--------------------|-----------------------------| 
 

|-----------------|---------------------------|| 
|-----------------|---------------------------|| 
|-----------------|---------------------------|| 
|---------------4-|------------------4-(0)-4--|| 
|-----------------|------------2-0-0---(0)----|| 
|----0-0-3^-0-0---|-0-0-3^-0-0----------------|| 
      *      *       *      *     *    

 
||-----------------|----------------|----------------|------------------| 
||o-----8---8------|-----8---8------|-----8---8------|-----8---8--------| 
||------9---9--x-x-|-x---9-x-9--x-x-|-x-x-9-x-9--x-x-|-x-x-9---9------7-| 
||------9---9--x-x-|-x---9-x-9--x-x-|-x-x-9-x-9--x-x-|-x-x-9---9--7h9---| 
||o-----7---7--x-x-|-x---7-x-7--x-x-|-x-x-7-x-7--x-x-|-x-x-7---7--------| 
||--0-0------------|---0------------|----------------|------------------| 
 
|------------------|--------------------| 
|------------------|--------------------| 
|------7-----7---7-|-(7)---7-------7\---| 
|------------------|--------------------| 
|------------------|--------------------| 
|-/7-7---7-7---7---|-----7----7-7-(7)\--| 
 
|-----------------|-----------14-14-14-14-14-14----|| 
|-----------------|-----------12-12-12-12-12-12---o|| 
|-----3-----3-----|-----------14-14-14-14-14-14----|| 
|---------------5-|-(5)-5-5-5----------------------|| 
|---------------5-|-(5)-5-5-5---------------------o|| 
|-3-3---3-3---3-3-|-(3)-3-3-3----------------------|| 


 Verse 2 
|---14-x-x-14-x--x-14-|---14-x-14-14-14-14-14-14-14-| 
|---12-x-x-12-x--x-12-|---12-x-12-12-12-12-12-12-12-| 
|---14-x-x-14p12-x-14-|---14-x-14-14-14-14-14-14-14-| 
|---------------------|-----------------------------| 
|---------------------|-----------------------------| 
|---------------------|-----------------------------|
 
|---14-x-14-14-x-x-14-|---14-x-14-14-14-14-14-14-14-| 
|---12-x--x-12-x-x-12-|---12-x-12-12-12-12-12-12-12-| 
|---12-x-12-12-x-x-12-|---12-x-12-12-12-12-12-12-12-| 
|---------------------|-----------------------------| 
|---------------------|-----------------------------| 
|---------------------|-----------------------------| 

 
|---14-x-x-14-x-x-14-|---14-x-14-14-14-14-14-14-14-| 
|---12-x-x-12-x-x-12-|---12-x-12-12-12-12-12-12-12-| 
|---14-x-x-14-x-x-14-|---14-x-14-14-14-14-14-14-14-| 
|--------------------|-----------------------------| 
|--------------------|-----------------------------| 
|--------------------|-----------------------------| 
 
|---14-x-14-14-14-14-14-|---14-x-14-14-14-14-14-14-14-| 
|---12-x-12-12-12-12-12-|---12-x-12-12-12-12-12-12-12-| 
|---12-x-12-12-12-12-12-|---12-x-12-12-12-12-12-12-12-| 
|-----------------------|-----------------------------| 
|-----------------------|-----------------------------| 
|-----------------------|-----------------------------| 
 
|---14-x-x-14-x-x-14-|---14-x-14-14-14-14-14-14-14-| 
|----x-x-x--x-x-x--x-|----x-x--x--x--x--x--x--x--x-| 
|----x-x-x--x-x-x--x-|----x-x--x-12-12-12-12-12-12-| 
|---14-x-x-14-x-x-14-|---14-x-14-14-14-14-14-14-14-| 
|--------------------|-----------------------------| 
|--------------------|-----------------------------| 
 
|---14-x-14-14-x-x-14-|---14-x-14-14-14-14-14-14-14-| 
|---12-x--x-12-x-x-12-|---12-x-12-12-12-12-12-12-12-| 
|---12-x-12-12-x-x-12-|---12-x-12-12-12-12-12-12-12-| 
|---------------------|-----------------------------| 
|---------------------|-----------------------------| 
|---------------------|-----------------------------| 
 
|---14-x-x-14-x-x-14-|---14-x-14-14-14-14-14-14-14-| 
|---12-x-x-12-x-x-12-|---12-x-12-12-12-12-12-12-12-| 
|---14-x-x-14-x-x-14-|---14-x-14-14-14-14-14-14-14-| 
|--------------------|-----------------------------| 
|--------------------|-----------------------------| 
|--------------------|-----------------------------| 

 
||-----------------|----------------------------|| 
||o----------------|---------------------------o|| 
||-----------------|----------------------------|| 
||---------------4-|------------------4-(0)-4---|| 
||o----------------|------------2-0-0---(0)----o|| 
||----0-0-3^-0-0---|-0-0-3^-0-0-----------------|| 
       *      *       *      *     *                 

|----------------|----------------|----------------|----------------| 
|-----8---8------|-----8---8------|-----8---8------|-----8---8------| 
|-----9---9--x-x-|-x---9-x-9--x-x-|-x-x-9-x-9--x-x-|-x-x-9---9--x---| 
|-----9---9--x-x-|-x---9-x-9--x-x-|-x-x-9-x-9--x-x-|-x-x-9---9--x---| 
|-----7---7--x-x-|-x---7-x-7--x-x-|-x-x-7-x-7--x-x-|-x-x-7---7--x---| 
|-0-0------------|---0------------|----------------|--------------5/| 

|-----------------|---------------------|-----------------|-------------------| 
|-----------------|---------------------|-----------------|-------------------| 
|-----7-----7---7-|-(7)---7/11-11\7-7---|-----3-----3-----|---------------0-0-| 
|-----------------|---------------------|---------------5-|-(5)-5-5-5-5-5-0-0-| 
|-----------------|---------------------|---------------5-|-(5)-5-5-5-5-5-0-0-| 
|-7-7---7-7---7---|-----7-------------7\|-3-3---3-3---3-3-|-(3)-3-3-3-3-3-----| 

|----------------|----------------|----------------|----------------| 
|-----8---8------|-----8---8------|-----8---8------|-----8---8------| 
|-----9---9--x-x-|-x---9-x-9--x-x-|-x-x-9-x-9--x-x-|-x-x-9---9--x---| 
|-----9---9--x-x-|-x---9-x-9--x-x-|-x-x-9-x-9--x-x-|-x-x-9---9--x---| 
|-----7---7--x-x-|-x---7-x-7--x-x-|-x-x-7-x-7--x-x-|-x-x-7---7--x---| 
|-0-0------------|---0------------|----------------|--------------5/| 
 
|-----------------|---------------------| 
|-----------------|---------------------| 
|-----7-----7---7-|-(7)---7/11-11\7-7---| 
|-----------------|---------------------| 
|-----------------|---------------------| 
|-7-7---7-7---7---|-----7-------------7\| 

|-----------------|-----------14-14-14-14-14-14---|| 
|-----------------|-----------12-12-12-12-12-12---|| 
|-----3-----3-----|-----------14-14-14-14-14-14---|| 
|---------------5-|-(5)-5-5-5---------------------|| 
|---------------5-|-(5)-5-5-5---------------------|| 
|-3-3---3-3---3-3-|-(3)-3-3-3---------------------|| 


||-----------------|---------------------------| 
||o----------------|---------------------------| 
||-----------------|---------------------------| 
||---------------4-|------------------4-(0)-4--| 
||o----------------|------------2-0-0---(0)----| 
||----0-0-3^-0-0---|-0-0-3^-0-0----------------| 
       *      *       *      *     *    

|-----------------|----------------------------|| 
|-----------------|---------------------------o|| 
|-----------------|----------------------------|| 
|---------------4-|------------------4-(0)-4---|| 
|-----------------|------------2-0-0---(0)----o|| 
|----0-0-3^-0-0---|-0-0-3^-0-0-----------------|| 
       *     *       *      *     *    

 Guitar Solo 
|-----------|------------------| 
|-----------|------------------| 
|-----------|------------11h12h| 
|-14--------|-14---------------| 
|-----------|------------------| 
|-----------|------------------| 
 
|---------------------------------|--------------------------| 
|---------------------------------|------------------12h14h==| 
|-14--(14)-(14)b16r(14)-12-11-12--|-(12)/11--(11)------------| 
|---------------------------------|--------------------------| 
|---------------------------------|--------------------------| 
|---------------------------------|--------------------------| 
 
|---------------------------|-------------|------------------------------------------15p| 
|-15--14p12h14h15p14p12h14--|-(14)--------|-14h15p14p12h14-(14)--(14)-12h14h15p14p12----| 
|---------------------------|-------------|---------------------------------------------| 
|---------------------------|-------------|---------------------------------------------| 
|---------------------------|-------------|---------------------------------------------| 
|---------------------------|-------------|---------------------------------------------| 
 
|-14p12-15p12-15p12-15p12-15-15b17r=(15)-12---| 
|---------------------------------------------| 
|---------------------------------------------| 
|---------------------------------------------| 
|---------------------------------------------| 
|---------------------------------------------| 
 
|-15--------------------------|-[14]h[15]-14p12---------------------| 
|----x-15b17==(15)--(15)r--x--|-----------------14--12-14b16r=(14)--| 
|-----------------------------|-------------------------------------| 
|-----------------------------|-------------------------------------| 
|-----------------------------|-------------------------------------| 
|-----------------------------|-------------------------------------| 
 
|----------------------------------|------------------------------------------------| 
|-(14)---12------------------------|------------------------------------------------| 
|-----------14p12p11h12h14-(14)-11-|-11h12h14p12-11h12h14p12-11h12-11h12-11h12h14---| 
|----------------------------------|------------------------------------------------| 
|----------------------------------|------------------------------------------------| 
|----------------------------------|------------------------------------------------| 
 
|----------------------------------12-------------------| 
|-12h13h15p13-------------12h13h15-------------12h13h15-| 
|-------------12p11h12h14-------------12p11h12----------| 
|-------------------------------------------------------| 
|-------------------------------------------------------| 
|-------------------------------------------------------| 
 
|---------------------------------------------------| 
|-----15----------15p12-(12)----------------15p13p==| 
|-(0)----12h14p12------------12-11-12h13h14---------| 
|---------------------------------------------------| 
|---------------------------------------------------| 
|---------------------------------------------------| 
 
|----------------------------------------|----------------------------------| 
|-12h13h15p12h15p12h15p12-15b17----------|-15-12-12-12-12-15-12-12-12-------| 
|----------------------------------------|----------------------------14----| 
|-------------------------------(0)-(0)--|----------------------------------| 
|----------------------------------------|----------------------------------| 
|----------------------------------------|----------------------------------| 
 
|-----------------------------------|------------------------------| 
|-15-12-12-12-15-12-12-12--------12-|-(12)-15-12-15-12-12-12-12----| 
|-------------------------14--14----|------------------------------| 
|-----------------------------------|------------------------------| 
|-----------------------------------|------------------------------| 
|-----------------------------------|------------------------------| 

|------------------------------------------| 
|-15-12----12-15-12-12-12---------------12-| 
|-------12----------------14b15r(14)-14----| 
|------------------------------------------| 
|------------------------------------------| 
|------------------------------------------| 
 
|---------------------------------------------| 
|----15-12-15-12-12-12-15-12-12-12------------| 
|-14-------------------------------14b15r(14)-| 
|---------------------------------------------| 
|---------------------------------------------| 
|---------------------------------------------| 
 
|-15-12-12-12-15-12-12-12--------12-|-(12)-15-12-15-12-12-12-15-12-12-12-----| 
|-------------------------14--14----|------------------------------------14--| 
|-----------------------------------|----------------------------------------| 
|-----------------------------------|----------------------------------------| 
|-----------------------------------|----------------------------------------| 
|-----------------------------------|----------------------------------------| 
 
|------------------------------------------------| 
|-(14)-15-14-15/17-17-17-17-17-------------------| 
|------------------------------14-14-14-14/12-12-| 
|------------------------------------------------| 
|------------------------------------------------| 
|------------------------------------------------| 
 
|--------------------------------------------------| 
|--------------------------------------------------| 
|-12-12h14p12-12-14-12-12-14/16/14/16-16-16-16-16--| 
|--------------------------------------------------| 
|--------------------------------------------------| 
|--------------------------------------------------| 
 
|-------------[17]-15-17-15-15-17-15-15-15-| 
|---[17]-[15]------------------------------| 
|------------------------------------------| 
|------------------------------------------| 
|------------------------------------------| 
|------------------------------------------| 
 
|-17-15--------------------------------| 
|-------15/17-17-15-15-15-----12-12-12-| 
|-------------------------16-----------| 
|--------------------------------------| 
|--------------------------------------| 
|--------------------------------------| 
 
|-15-14-13-12-15-14-13-12-15-14-13-12-------------| 
|-------------------------------------15-14-13-12-| 
|-------------------------------------------------| 
|-------------------------------------------------| 
|-------------------------------------------------| 
|-------------------------------------------------| 
 
|-------------------------------| 
|-------------------------------| 
|-15-14-13-12-------------------| 
|-------------15-14-13-12-11----| 
|-------------------------------| 
|-------------------------------| 
 
|-----------------------------------------|----------------------------------| 
|-----------------------------------------|----------------12-12-12-12-12-12-| 
|------12-12-12-12-14-14b14.5-12-14b14.5==|=(14)r-12-12-12-------------------| 
|-/14-------------------------------------|----------14-14-------------------| 
|-----------------------------------------|----------------------------------| 
|-----------------------------------------|----------------------------------| 
 
|-------------------------------------------------| 
|-12-12-12-12-12-12-12-12-12-12-12-12-12-12-12-12-|
|-------------------------------------------------| 
|-------------------------------------------------| 
|-------------------------------------------------|
|-------------------------------------------------|

|-----------------------------------------||
|-12-12-12-12-12-12-12-12-12-12-12-12-----|| 
|-----------------------------------------||
|-----------------------------------------||
|-----------------------------------------||
|-------------------------------------14\-|| 


   Interlude 
||-----------------|---------------------------| 
||o----------------|---------------------------| 
||-----------------|---------------------------| 
||---------------4-|------------------4-(0)-4--| 
||o----------------|------------2-0-0---(0)----| 
||----0-0-3^-0-0---|-0-0-3^-0-0----------------| 
       *      *       *      *     *    

|-----------------|----------------------------|| 
|-----------------|---------------------------o|| 
|-----------------|----------------------------|| 
|---------------4-|------------------4-(0)-4---|| 
|-----------------|------------2-0-0---(0)----o|| 
|----0-0-3^-0-0---|-0-0-3^-0-0-----------------|| 
       *     *       *      *     *     


  Outro 
||-------------------|------------------|------------------|------------------| 
||o------9----9------|------9----9------|------9----9------|------9----9------| 
||--x-x-10---10--x-x-|-x-x-10-x-10--x-x-|-x-x-10-x-10--x-x-|-x-x-10---10--x---| 
||--x-x-10---10--x-x-|-x-x-10-x-10--x-x-|-x-x-10-x-10--x-x-|-x-x-10---10--x---| 
||o-x-x--8----8--x-x-|-x-x--8-x--8--x-x-|-x-x--8-x--8--x-x-|-x-x--8----8--x---| 
||-------------------|------------------|------------------|----------------6/| 
 
|-----------------|--------------------| 
|-----------------|--------------------| 
|-----8-----8---8-|-(8)---8-------8\---| 
|-----------------|--------------------| 
|-----------------|--------------------| 
|-8-8---8-8---8---|-----8----8-8-(8)\--| 
 
|-----------------|---------------------|| 
|-----------------|--------------------o|| 
|-----4-----4-----|-----------------0---|| 
|---------------6-|-(6)-6-6-6-6-6-6-0---|| 
|-----------------|-----x-x-x-x-x-x-0--o|| 
|-4-4---4-4---4---|-----4-4-4-4-4-4-----|| 
 
|------------------|------------------|------------------|------------------| 
|------9----9------|------9----9------|------9----9------|------9----9------| 
|-x-x-10---10--x-x-|-x-x-10-x-10--x-x-|-x-x-10-x-10--x-x-|-x-x-10---10--x---| 
|-x-x-10---10--x-x-|-x-x-10-x-10--x-x-|-x-x-10-x-10--x-x-|-x-x-10---10--x---| 
|-x-x--8----8--x-x-|-x-x--8-x--8--x-x-|-x-x--8-x--8--x-x-|-x-x--8----8--x---| 
|------------------|------------------|------------------|----------------6/| 
 
|-----------------|---------------------|-----------------|--------------------| 
|-----------------|---------------------|-----------------|--------------------| 
|-----8-----8---8-|-(8)---8/12-12\8-8---|-----4-----4-----|-----------------0--| 
|-----------------|---------------------|---------------6-|-(6)-6-6-6-6-6-6-0--| 
|-----------------|---------------------|-----------------|-----x-x-x-x-x-x-0--| 
|-8-8---8-8---8---|-----8-------------8\|=4-4---4-4---4---|-----4-4-4-4-4-4----| 
 
|------------------|------------------|------------------|-------------------| 
|------9----9------|------9----9------|------9----9------|------9----9-------| 
|-x-x-10---10--x-x-|-x-x-10-x-10--x-x-|-x-x-10-x-10--x-x-|-x-x-10---10--x----| 
|-x-x-10---10--x-x-|-x-x-10-x-10--x-x-|-x-x-10-x-10--x-x-|-x-x-10---10--x----| 
|-x-x--8----8--x-x-|-x-x--8-x--8--x-x-|-x-x--8-x--8--x-x-|-x-x--8----8--x----| 
|------------------|------------------|------------------|----------------6--| 
 
|-----------------|---------------------| 
|-----------------|---------------------| 
|-----8-----8---8-|-(8)---8/11-11\8-8---| 
|-----------------|---------------------| 
|-----------------|---------------------| 
|-8-8---8-8---8---|-----8-------------8\| 
 
|-----------------|--------------------|| 
|-----------------|--------------------|| 
|-----4-----4-----|-----------------0--|| 
|---------------6-|-(6)-6-6-6-6-6-6-0--|| 
|-----------------|-----x-x-x-x-x-x-0--|| 
|-4-4---4-4---4---|-----4-4-4-4-4-4----|| 
 





Comments


Popular Incubus tabs & chords
Pendolous Threads Bass Tabs
Priceless 2 Bass Tabs
Rogues Bass Tabs
Speak Free Bass Tabs
Anna Molly 1 Tabs
Certain Shade Of Green 4 Tabs
Redefine Tabs
Turning Japanese Tabs
Wish You Were Here 10 Tabs
Stellar Ukulele


Song lyrics



↑ Back to top | Tablatures and chords are parodies/interpretations of the original songs. You may use it for private study, scholarship, research or language learning purposes only
© 2014 AZChords.com Contact us | Privacy policy | DMCA | Add/correct tabs | Request tabs | Top 50 tabs