» » »

Incubus, Mexico Tabs (ver.5)

Artists:  A B C D E F G H I J K L M N O P Q R S T U V W X Y Z # 

Mexico Tabs (ver.5)

Incubus Tabs
 Rating:
4/5 (4 votes)
Mexico lessons Tabs too difficult? Try these video lessons and learn fast
                (Intro)
There's a few tabs for this floating around, and the parts for the 
chorus and bridge seem pretty much correct, but not the part for
the intro and verses
I'm 100% sure this is the correct way to play the intro:

------------------------------------------------------------
-----------------8-------8--------6----6--------------------
---------------------------------------------------7------7-
------------9---------9--------7-----7----------------------
--------7-----------7-------5------5-------------8-----8----
------------------------------------------5/6--6-----6------

------------------------------------------------------------
------------------------------------------------------------
-------2--------2-------------------------------------------
------------------------------------------------------------
-----3--------3---------------------------------------------
-1-----------1----------------------------------------------

And thats about it.I also know the correct way to play a whole bunch
0f foo fighters and goo goo dolls stuff that isn't on the net (including
walking after you which no-one else has even gotten close to) but I
can't be arsed to post it.
cheers
            
Submit corrections

comments powered by Disqus
↑ Back to top | Incubus Tabs for Mexico. Lyrics for acoustic guitar and electric guitar. Tablatures and chords are parodies/interpretations of the original songs. You may use it for private study, scholarship, research or language learning purposes only