» » »

Favorite Thing Bass tabs (ver.2)

Artists:  A B C D E F G H I J K L M N O P Q R S T U V W X Y Z # 

Favorite Thing Bass tabs (ver.2)

Incubus
Rating:
0/5 (0 votes)

Hard to play? Try these video lessons and learn fast.
                Yo there! I learned this song ages ago!i was trying to find a decent tab
to help me remember it. But they were all cr*p haha... no pound intended.
I tabed it out and this is how i use to play it :) Dirk lance should come
back to incubus, i miss him :(

Normal tuning
G|
D|
A|
E|

Main riff
|-------------------------|-------------------------|
|-7-----8-----------------|-7-----8-----------------|
|-------------------------|-------------------------| x6
|---5-6---5-6-555-0-1-2-3-|---5-6---5-6-66666-0-1-2-|

Verse
|-----------------|
|--------------10-|
|------77----88---| x7
|-55555--8888-----|

main riff
|-------------------------|-------------------------|
|-7-----8-----------------|-7-----8-----------------|
|-------------------------|-------------------------| x6
|---5-6---5-6-555-0-1-2-3-|---5-6---5-6-66666-0-1-2-|

verse
|-----------------|
|--------------10-|
|------77----88---| x7
|-55555--8888-----|

chorus
|---------------------|
|---------------------|
|------8-88---------8-| x4
|-5-55------5-5-6-6---|

Bridge
|---------------------------------------------------|
|---7-----7-----------------------------------------|
|-5---5-5---5---6-----6------5-----5------3-----3---|
|-------------4---4-4---4--3---3-3---3--1---1-1---1-|

|----------------------------|
|----------------------------|
|----0----00----0----0000----|
|----------------------------|

Main riff
|-------------------------|-------------------------|
|-7-----8-----------------|-7-----8-----------------|
|-------------------------|-------------------------| x3
|---5-6---5-6-555-0-1-2-3-|---5-6---5-6-66666-0-1-2-|

verse
|-----------------|
|--------------10-|
|------77----88---| x7
|-55555--8888-----|

chorus
|---------------------|
|---------------------|
|------8-88---------8-| x8
|-5-55------5-5-6-6---|
            
Hard to play? Try these video lessons and learn fast. | Correct




comments powered by Disqus
↑ Back to top | Tablatures and chords are parodies/interpretations of the original songs. You may use it for private study, scholarship, research or language learning purposes only