>
 >
My Only One 4

My Only One 4 Bass Tabs

Hurriganes - My Only One 4 chords, tabs, tablatures, lyrics

Guitar lessons | Add/correct | Request | Top 50 tabs Artists:  A B C D E F G H I J K L M N O P Q R S T U V W X Y Z 0-9

My Only One 4 Bass Tabs – Hurriganes

CD, Sheet music, Poster

Do you like My Only One 4? Share with your friends now
Bass TabsBass Tabs v2Bass Tabs v3Bass Tabs v4ChordsChords v2Chords v3TabsTabs v2Ukulele

Intro

G --------------------------------------------------------|
D---------------------------------------------------------|
A----3-3-2-----------------0-3-3-2-----------------0------|
E----------5-5-3-1-1-2-3-3---------5-5-3-1-1-2-3-3--------|
Repeat till:

Cause you were my only one...

G----------------------------------------------------------|
D---2-5---2-5----------------------------------------------|
A-3-----3-------4-7---4-7----0-3---0-3---------------------|
E-------------5-----5------1-----1-------3-3-3-3-3-3-3-3-3-|

Do you know what you've done to me...

G --------------------------------------------------------|
D---------------------------------------------------------|
A----3-3-2-----------------0-3-3-2-----------------0------|
E----------5-5-3-1-1-2-3-3---------5-5-3-1-1-2-3-3--------|

Cause you were my only one...

G----------------------------------------------------------|
D---2-5---2-5----------------------------------------------|
A-3-----3-------4-7---4-7----0-3---0-3---------------------|
E-------------5-----5------1-----1-------3-3-3-3-3-3-3-3-3-|

Solo...

G ---------------------------------------------------------------------------------------|
D---------------------------------2-5---2-5----------------------------------------------|
A----3-3-2----------------------3-----3-------4-7---4-7----0-3---0-3---------------------|
E----------5-5-3-1-1-2-3-3------------------5-----5------1-----1-------3-3-3-3-3-3-3-3-3-|

Cause you were my only one...

G----------------------------------------------------------|
D---2-5---2-5----------------------------------------------|
A-3-----3-------4-7---4-7----0-3---0-3---------------------|
E-------------5-----5------1-----1-------3-3-3-3-3-3-3-3-3-|

Do you know what you've done to me...

G --------------------------------------------------------|
D---------------------------------------------------------|
A----3-3-2-----------------0-3-3-2-----------------0------|
E----------5-5-3-1-1-2-3-3---------5-5-3-1-1-2-3-3--------|

Cause you were my only one...

G----------------------------------------------------------|
D---2-5---2-5----------------------------------------------|
A-3-----3-------4-7---4-7----0-3---0-3---------------------|
E-------------5-----5------1-----1-------3-3-3-3-3-3-3-3-3-|  Repeat until song ends.





Comments


Popular Hurriganes tabs & chords
I Saw Her Standing There Bass Tabs
Mister X Chords
Down The Line Tabs
Miss Betty Tabs
My Only One 1 Tabs
Oh Yeah Tabs
Pretty Mona Tabs
Roadrunner 2 Tabs
Super Oil And Asd Tabs
Tallahassee Lassie Tabs


Song lyrics



↑ Back to top | Tablatures and chords are parodies/interpretations of the original songs. You may use it for private study, scholarship, research or language learning purposes only
© 2014 AZChords.com Contact us | Privacy policy | DMCA | Add/correct tabs | Request tabs | Top 50 tabs