» » »

Hurriganes, Bourbon Street Tabs (ver.1)

Artists:  A B C D E F G H I J K L M N O P Q R S T U V W X Y Z # 

Bourbon Street Tabs (ver.1)

Hurriganes Tabs
 Rating:
4/5 (8 votes)
Bourbon Street lessons Tabs too difficult? Try these video lessons and learn fast
                Hurriganes
Tab written and submitted by Aleksi Hahko

The chords are OK and the solo is 98 % correct.
This sounds great with two guitars but I play it
with one and nobody's ever complained.

Standard tuning

Chords

    EADGBE

Guitar 1

C   335553
Am  577555
F   X33211
G   355433
Em  779987

Guitar 2

C   X35XXX
Am  57XXXX
F   13XXXX
G   35XXXX


Intro x2

  C       Am      F      G

|------------------------------------|
|------------------------------------|
|------------------------------------|
|------------------------1s2-2-0---0-|
|-2-3--3--2-3--3--2-3--3---------3---|
|------------------------------------|

After the "Ev'rything is keepin' high"
and "Is one enough fly to the west?"
with guitar 2:

 Em     C           Am

|---------------------------------|
|-------------------0-------------|
|-----0-----0-------2-------------|
|---2-----2---------2-------------|
|-3-----2-------------------------|
|---------------------------------|

Solo

|---------------------------------|----------------------------------|
|-------------------8-------------|----------------------------------|
|------5-7-5----7b9---7b9---------|-7b9--7-5------7b9rbp5------------|
|--5h7----------------------------|----------7-5--------7-5----------|
|---------------------------------|----------------------------------|
|---------------------------------|----------------------------------|

|---------------------------------|----8----8-8------10b12-8---------|
|--------8-10---8-10-8------------|-10---10-----10-8---------10-8-10-|
|-9h10-9------9-------------------|----------------------------------|
|---------------------------------|----------------------------------|
|---------------------------------|----------------------------------|
|---------------------------------|----------------------------------|


 C		   Am
Ev'rything goes on late here
F	     G
Me and Sally Brown
C	      Am	
Sittin' back in a Cadillac
 F		      G
Ain't got no worries at

 C		Am		F
Bourbon Street, Bourbon Street, Bourbon Street
    G
Bop to my baby
 C		Am		F
Bourbon Street, Bourbon Street, Bourbon Street
    G
Bop to my baby

Well, you get on famous, 
Me and Jenny Brown
Smokin' and talkin' there 
I'm so glad I'm on

Bourbon Street, Bourbon Street, Bourbon Street
Bop to my baby
Bourbon Street, Bourbon Street, Bourbon Street
Bop to my baby

F                   G
All the people smoke outside
F	          G           Em C Am
Ev'rything is keepin' high
F               G
Come see me, hey, I got the best
F		 G		Em C Am F G  
Is one enough fly to the west?

Solo

And now I know the difference
Of me and Johnny's hands
Me and moma peanut butter
Get your head in your bed

Bourbon Street, Bourbon Street, Bourbon Street
Bop to my baby
Bourbon Street, Bourbon Street, Bourbon Street
Bop to my baby
All the people smoke outside
Ev'rything is keepin' high
Come see me, hey, I got the best
Is one enough fly to the west?

Em C Am Em C Am
            
Submit corrections

comments powered by Disqus
↑ Back to top | Hurriganes Tabs for Bourbon Street. Lyrics for acoustic guitar and electric guitar. Tablatures and chords are parodies/interpretations of the original songs. You may use it for private study, scholarship, research or language learning purposes only