» » »

My Only One Tabs (ver.2)

Artists:  A B C D E F G H I J K L M N O P Q R S T U V W X Y Z # 

My Only One Tabs (ver.2)

Hurriganes
Rating:
0/5 (0 votes)

Hard to play? Try these video lessons and learn fast.
                                              Hurriganes
                             My Only one

           C5          B5 A5          F5
E|-------------------------------------------------------------------------|
B|-------------------------------------------------------------------------|
G|-------------------------------------------------------------------------|
D|---------5-5-5-5-5-5-4-2-2-2-2-2-2---------------------------------------|
A|---0-2---3-3-3-3-3-3-2-0-0-0-0-0-0---3-3-3-3-3-3-5-5-5-5-5-5-------------|
E|-3---------------------------------0-1-1-1-1-1-1-3-3-3-3-3-3-------------|
     C5          B5 A5           F5               
E|-------------------------------------------------------------------|
B|-------------------------------------------------------------------|
G|-------------------------------------------------------------------|
D|---5-5-5-5-5-5-4-2-2-2-2-2-2---------------------------------------|
A|---3-3-3-3-3-3-2-0-0-0-0-0-0---3-3-3-3-3-3-5-5-5-5-5-5-------------|
E|-----------------------------0-1-1-1-1-1-1-3-3-3-3-3-3-------------|
   
     Verse 1
Do you remember still the night
When you left me crying
Do you know that you broke my heart
When you left me crying


    Chorus
   N.C               C5
Cause you were my only one 
        A5
Yeah my only one
          F5
Ooh ho my only one 
                    G5
Please come back to me 

After chorus this

E|---------------------------|
B|---------------------------|
G|---------------------------|
D|---------------------------|
A|-5-5--7-7--9-9-1010--------|
E|-3-3--5-5--7-7--8-8--------|

     Verse 2
Do you know what you done to me 
When you hurt me so 
All the time i still dream of you 
Cause you got my love 


 Guitar Solo
e|-----------------------------------------------------------------|
B|-17-15h17-13-12----12-13p12h13--/10-10---10-13-12h13p12-12-13s15-|
G|----------------14--------------------12-------------------------|
D|-----------------------------------------------------------------|
A|-----------------------------------------------------------------|
E|-----------------------------------------------------------------|

e|-----------------------------------------------------------------|
B|-17-15h17-13-12----12-13p12h13--/10-10---10-13-12h13p12-12-13s15-|
G|----------------14--------------------12-------------------------|
D|-----------------------------------------------------------------|
A|-----------------------------------------------------------------|
E|-----------------------------------------------------------------|


e|-------15--------------------15----------------------------------|
B|-15b17----17r-13-15-13-15b------15b------------------------------|
G|-----------------------------------------------------------------|
D|-----------------------------------------------------------------|
A|-----------------------------------------------------------------|
E|-----------------------------------------------------------------|

e|-------15----------------------------------------|
B|-15b17----r17-13-15-13-15b-15-13-----------------|
G|-----------------------------------14~-----------|
D|-------------------------------------------------|
A|-------------------------------------------------|
E|-------------------------------------------------|

e|-------------------------------------------------------------------------|
B|----10-13-15-10-13-15b17p13-15-15--13b-13-12-13-15--15-------15----------|
G|-12---------------------------------------------------12-12----12-12-----|
D|-------------------------------------------------------------------------|
A|-------------------------------------------------------------------------|
E|-------------------------------------------------------------------------|
                 Solo is from Ver 1 from My only one
                       But with corrections
Chorus

Verse 3
 
Chorus
Repeat

                Please comment and rate this tab!
         
            
Hard to play? Try these video lessons and learn fast. | Correct




comments powered by Disqus
↑ Back to top | Tablatures and chords are parodies/interpretations of the original songs. You may use it for private study, scholarship, research or language learning purposes only