» » »

Hurriganes, In The Nude Tabs (ver.1)

Artists:  A B C D E F G H I J K L M N O P Q R S T U V W X Y Z # 

In The Nude Tabs (ver.1)

Hurriganes Tabs
 Rating:
4.3/5 (6 votes)
In The Nude lessons Tabs too difficult? Try these video lessons and learn fast
                In the nude


|---------------------------------------|
|---------------------------------------|
|---------------------------------------|
|---------------1--2--3—5---------------|
|--3-2-3-4-5--------------------3-------|
|---------------------------------------|

|----------------------------------------------------------|
|--------1----------1---------1---------1---1---------1----|
|----------------------------------------------------------|
|-----2---------2----------2----------2--------------------|   2x
|--3---------3----------3---------3------------------------|
|----------------------------------------------------------|

|----------------------------------------------------------|
|--------1----------1---------1---------1---1---------1----|
|-----2----------2---------2----------2--------------------|
|--3----------3---------3----------3-----------------------|
|----------------------------------------------------------|
|----------------------------------------------------------|

|----------------------------------------------------------|
|--------1----------1---------1---------1---1---------1----|
|----------------------------------------------------------|
|-----2---------2----------2----------2--------------------|   
|--3---------3----------3---------3------------------------|
|----------------------------------------------------------|

|----------------------------------------------------------|
|--------5----------5---------5---------5---5---------5----|
|-----6----------6---------6----------6--------------------|
|--7----------7---------7----------7-----------------------|
|----------------------------------------------------------|
|----------------------------------------------------------|


 
|---------------------------------------|
|---------------------------------------|
|---------------------------------------|
|---------------1--2--3—5---------------|
|--3-2-3-4-5--------------------3-------|
|---------------------------------------|

|----------------------------------------------------------|
|--------1----------1---------1---------1---1---------1----|
|----------------------------------------------------------|
|-----2---------2----------2----------2--------------------|   2x
|--3---------3----------3---------3------------------------|
|----------------------------------------------------------|

|----------------------------------------------------------|
|--------1----------1---------1---------1---1---------1----|
|-----2----------2---------2----------2--------------------|
|--3----------3---------3----------3-----------------------|
|----------------------------------------------------------|
|----------------------------------------------------------|

|----------------------------------------------------------|
|--------1----------1---------1---------1---1---------1----|
|----------------------------------------------------------|
|-----2---------2----------2----------2--------------------|   
|--3---------3----------3---------3------------------------|
|----------------------------------------------------------|

|----------------------------------------------------------|
|--------3----------3---------3---------3---3---------3----|
|-----4----------4---------4----------4--------------------|
|--5----------5---------5----------5-----------------------|
|----------------------------------------------------------|
|----------------------------------------------------------|

|---------------------------------------------------------|
|---------------------------------------------------------|
|---------------------------------------------------------| 
|---------------1-2-3-4-5-6--7--8--9--10--11--12--13--14--|
|--3-2-3-4-5----------------------------------------------|
|---------------------------------------------------------| 



|--------------------------------------------------------|
|--------------------------------------------------------|
|-----------------------------------12^14----14-----12---|
|--15--12--15-------------15-----------------------------|   3x
|--------------------------------------------------------|
|--------------------------------------------------------|

|------------------------------------------------------|
|------------------------------------------------------|
|--------12--12----------------------------------------|
|--15-------------15--15---14--14---12--12-------------|   
|------------------------------------------------------|
|------------------------------------------------------|

|--------------------------------------------------------|
|--------------------------------------------------------|
|-----------------------------------12^14----14-----12---|
|--15--12--15-------------15-----------------------------|   3x
|--------------------------------------------------------|
|--------------------------------------------------------|

|------------------------------------------------------|
|------------------------------------------------------|
|--------12--12----------------------------------------|
|--15-------------15--15---14--14---12--12-------------|   
|------------------------------------------------------|
|------------------------------------------------------|



|----------------------------------------------------------|
|--------1----------1---------1---------1---1---------1----|
|----------------------------------------------------------|
|-----2---------2----------2----------2--------------------|   2x
|--3---------3----------3---------3------------------------|
|----------------------------------------------------------|

|----------------------------------------------------------|
|--------1----------1---------1---------1---1---------1----|
|-----2----------2---------2----------2--------------------|
|--3----------3---------3----------3-----------------------|
|----------------------------------------------------------|
|----------------------------------------------------------|

 
|----------------------------------------------------------|
|--------1----------1---------1---------1---1---------1----|
|----------------------------------------------------------|
|-----2---------2----------2----------2--------------------|   
|--3---------3----------3---------3------------------------|
|----------------------------------------------------------|

|----------------------------------------------------------|
|--------3----------3---------3---------3---3---------3----|
|-----4----------4---------4----------4--------------------|
|--5----------5---------5----------5-----------------------|
|----------------------------------------------------------|
|----------------------------------------------------------|

|---------------------------------------------------------|
|---------------------------------------------------------|
|---------------------------------------------------------| 
|---------------1-2-3-4-5-6--7--8--9--10--11--12--13--14--|
|--3-2-3-4-5----------------------------------------------|
|---------------------------------------------------------|



|-------------------------------------------------------|
|-------------------------------------------------------|
|----------------------------------14--14--12^14^12-----|
|--15--12--15---------12--15----------------------------|   2x
|-------------------------------------------------------|
|-------------------------------------------------------|

|--------------------------------------------------------|
|--------------------------------------------------------|
|--------------------14--14—12---------------------------|
|--15--12--15---------------------12---------------------|   
|--------------------------------------------------------|
|--------------------------------------------------------|

|--------------------------------------------------------|
|--------------------------------------------------------|
|-------------------------14-----------------------------|
|--15--12--15--12-----------15---------------------------|   
|--------------------------------------------------------|
|--------------------------------------------------------|

|------------------------------------------------------|
|------------------------------------------------------|
|--------12--12----------------------------------------|
|--15-------------15--15---14--14---12--12-------------|   
|------------------------------------------------------|
|------------------------------------------------------|

|-------------------------------------------------------------|
|-------------------------------------------------------------|
|----------------------------------14--14--12^14^12-----------|
|--15--12--15---------12--15----------------------------------|   2x
|-------------------------------------------------------------|
|-------------------------------------------------------------|

|----------------------------------------------------------------------|
|--14-14-14-14-14-14-14-14-12-12-12-12-12-12-12-12---------------------|
|--14-14-14-14-14-14-14-14-12-12-12-12-12-12-12-12---------------------|
|---------------------------------------------------15-12-15-----------|
|----------------------------------------------------------------------|
|----------------------------------------------------------------------|

|-----------------------------------------------|
|-----------------------------------------------|
|--------12--12---------------------------------|
|--15-------------15--15---14--14---12--12------|   
|-----------------------------------------------|
|-----------------------------------------------|



|----------------------------------------------------------|
|--------1----------1---------1---------1---1---------1----|
|----------------------------------------------------------|
|-----2---------2----------2----------2--------------------|   2x
|--3---------3----------3---------3------------------------|
|----------------------------------------------------------|

|----------------------------------------------------------|
|--------1----------1---------1---------1---1---------1----|
|-----2----------2---------2----------2--------------------|
|--3----------3---------3----------3-----------------------|
|----------------------------------------------------------|
|----------------------------------------------------------|

|----------------------------------------------------------|
|--------1----------1---------1---------1---1---------1----|
|----------------------------------------------------------|
|-----2---------2----------2----------2--------------------|   
|--3---------3----------3---------3------------------------|
|----------------------------------------------------------|

|----------------------------------------------------------|
|--------5----------5---------5---------5---5---------5----|
|-----6----------6---------6----------6--------------------|
|--7----------7---------7----------7-----------------------|
|----------------------------------------------------------|
|----------------------------------------------------------|

|---------------------------------------|
|---------------------------------------|
|---------------------------------------|
|---------------1--2--3—5---------------|
|--3-2-3-4-5--------------------3-------|
|---------------------------------------|


Drum “solo”


|----------------------------------------------------------|
|--------1----------1---------1---------1---1---------1----|
|----------------------------------------------------------|
|-----2---------2----------2----------2--------------------|   2x
|--3---------3----------3---------3------------------------|
|----------------------------------------------------------|

|----------------------------------------------------------|
|--------1----------1---------1---------1---1---------1----|
|-----2----------2---------2----------2--------------------|
|--3----------3---------3----------3-----------------------|
|----------------------------------------------------------|
|----------------------------------------------------------|

|----------------------------------------------------------|
|--------1----------1---------1---------1---1---------1----|
|----------------------------------------------------------|
|-----2---------2----------2----------2--------------------|   
|--3---------3----------3---------3------------------------|
|----------------------------------------------------------|

|----------------------------------------------------------|
|--------5----------5---------5---------5---5---------5----|
|-----6----------6---------6----------6--------------------|
|--7----------7---------7----------7-----------------------|
|----------------------------------------------------------|
|----------------------------------------------------------|

|---------------------------------------|
|---------------------------------------|
|---------------------------------------|
|---------------1--2--3—5---------------|
|--3-2-3-4-5--------------------3-------|
|---------------------------------------|
            
Submit corrections

comments powered by Disqus
↑ Back to top | Hurriganes Tabs for In The Nude. Lyrics for acoustic guitar and electric guitar. Tablatures and chords are parodies/interpretations of the original songs. You may use it for private study, scholarship, research or language learning purposes only