» » »

Hurriganes, My Only One Chords (ver.3)

Artists:  A B C D E F G H I J K L M N O P Q R S T U V W X Y Z # 

My Only One Chords (ver.3)

Hurriganes Tabs
 Rating:
4/5 (4 votes)
My Only One lessons Tabs too difficult? Try these video lessons and learn fast
1
                                         Hurriganes - My Only One
                                  Chords


Chords: C,Am,F,G

Solo:
e|-------------------------------------------------------------------|
B|-17-15h17-13-12----12-13p12h13--10-10---10-13-12h13p12-12-13s15----|
G|----------------14--------------------12---------------------------|
D|-------------------------------------------------------------------|
A|-------------------------------------------------------------------|
E|-------------------------------------------------------------------|

e|-------------------------------------------------------------------|
B|-17-15h17-13-12----12-13p12h13--10-10---10-13-12h13p12-12-13s15----|
G|----------------14--------------------12---------------------------|
D|-------------------------------------------------------------------|
A|-------------------------------------------------------------------|
E|-------------------------------------------------------------------|


e|-------15--------------------15-----------------|
B|-15b17----17r-13-15-13-15b------15b-------------|
G|------------------------------------------------|
D|------------------------------------------------|
A|------------------------------------------------|
E|------------------------------------------------|

e|-------15---------------------------------------|
B|-15b17----r17-13-15-13-15b-15-13----------------|
G|-----------------------------------14-----------|
D|------------------------------------------------|
A|------------------------------------------------|
E|------------------------------------------------|

e|------------------------------------------------------------------------|
B|----10-13-15-10-13-15b17p13-15-15--13b-13-12-13-15--15-------15---------|
G|-12---------------------------------------------------12-12----12-12----|
D|------------------------------------------------------------------------|
A|------------------------------------------------------------------------|
E|------------------------------------------------------------------------|

C               Am               F
Do you remeber still the night
                   G
When you left me crying
C                      Am            F
Do you know that you broke my heart
                   G
When you left me crying
                    C
Cause you were my only one
         Am
Yeah my only one
            F
Ooh ho my only one
                    G
Please come back to me
C                     Am
Do you know what you done to me
 F               G
When you hurt me so
C                      Am
All the time i still dream of you
 F                 G
Cause you got my love...
            
Submit corrections

comments powered by Disqus
↑ Back to top | Hurriganes Chords for My Only One. Lyrics for acoustic guitar and electric guitar. 1 Tablatures and chords are parodies/interpretations of the original songs. You may use it for private study, scholarship, research or language learning purposes only