>
 >
Just For You

Just For You Guitar Tabs

Hurriganes - Just For You chords, tabs, tablatures, lyrics

Guitar lessons | Add/correct | Request | Top 50 tabs Artists:  A B C D E F G H I J K L M N O P Q R S T U V W X Y Z 0-9

Just For You Guitar Tabs – Hurriganes

CD, Sheet music, Poster

Do you like Just For You? Share with your friends now
Tabs
Hurriganes- Just For You
Music by Aaltonen-Järvinen


|-------------------|-------------|--------------------|-----------|
|-------------------|-----8s10----|-(10)---8s10--8s5---|-----------|
|----9-(9)b10--(9)--|-7-----------|------------------7-|-7S===9----|
|-------------------|-------------|--------------------|-----------|
|-------------------|-------------|--------------------|-----------|
|-------------------|-------------|--------------------|-----------|


|-----------------|-----------|
|-----------------|-----------|
|----7-(7)b9--7b9-|-7----5----|
|-----------------|-----------|
|-----------------|-----------|
|-----------------|-----------|


|--------------------------|--------------------------|
|--------------------------|---------8------8---------|
|-7---------5--7b9r(7)-5---|-5--9h10---9h10---10p9----|
|----5--5h7--------------7-|-----------------------10-|
|--------------------------|--------------------------|
|--------------------------|--------------------------|


|-----8--8--8--8------|----------10-8-|
|-----8h10--8h10--8---|-8----10-------|
|-------------------9-|---------------|
|-10------------------|---------------|
|---------------------|---------------|
|---------------------|---------------|


|------10p8---10p8---|----------------------------|
|-9---------9------9-|-8-(8)b9r(8)-------8------8-|
|--------------------|--------------9h10---9h10---|
|--------------------|----------------------------|
|--------------------|----------------------------|
|--------------------|----------------------------|


|----------------|-----------|----------------------|-------------------8-8----|
|----------------|-----------|----------------------|------------8-8h10-----10-|
|-9---7-(7)b9----|-7----5----|-7---9-(9)b10--(9)----|-------9h10---------------|
|----------------|-----------|-------------------10-|-(10)---------------------|
|----------------|-----------|----------------------|--------------------------|
|----------------|-----------|----------------------|--------------------------|


|-8------------------15-------------|----------------------------|
|----------13-15b17=====15r-(15)-13-|-15-(15)b17-13-------15b17--|
|----12S14--------------------------|------------------14--------|
|-----------------------------------|----------------------------|
|-----------------------------------|----------------------------|
|-----------------------------------|----------------------------|


|----------------13-12----|-----------------|
|-15----------13-------13-|---------8-10----|
|-------12S14-------------|-12-9h10------9--|
|-------------------------|-----------------|
|-------------------------|-----------------|
|-------------------------|-----------------|


|------------------------|---------------|
|-8--------8-------------|---------------|
|------7b9---7b9r(7)-5---|-5--------7b9--|
|----------------------7-|------7-5------|
|------------------------|---------------|
|------------------------|---------------|


|----------------------|-------------------8---------|
|----------------------|------------8-8h10--------8--|
|-7---9-(9)b10--(9)----|-------9h10----------9h10----|
|-------------------10-|-(10)------------------------|
|----------------------|-----------------------------|
|----------------------|-----------------------------|


|---------------------|-------------|--------------------|-----------|
|---------------------|-----8s10----|-(10)---8s10--8s5---|-----------|
|------9-(9)b10--(9)--|-7-----------|------------------7-|-7S===9----|
|-10------------------|-------------|--------------------|-----------|
|---------------------|-------------|--------------------|-----------|
|---------------------|-------------|--------------------|-----------|


|------------------|------------|
|------------------|------------|
|----7-(7)b9--7b9--|-7----5---5S|
|------------------|------------|
|------------------|------------|
|------------------|------------|


|--------------------|------12-10-8-----------------|
|--------------------|--------------10-8------------|
|-7-9-(9)b10--(9)----|-------------------10-9-------|
|-----------------10-|-(10)-------------------10----|
|--------------------|---------------------------10-|
|--------------------|------------------------------|


|--------------------------|--8---8--10-8-|
|----------8------8------8-|-10-----------|
|-----9h10---9h10---9h10---|--------------|
|-10-----------------------|--------------|
|--------------------------|--------------|
|--------------------------|--------------|


|-------10p8---10p8---|----------------------------|
|-9----------9------9-|-8-(8)-(8)--------8------8--|
|---------------------|-------------9h10---9h10----|
|---------------------|----------------------------|
|---------------------|----------------------------|
|---------------------|----------------------------|


|--------------------------|-----------------|
|---------------------8----|-----------------|
|-9-(9)b10r(9)--7b9===7-7r-|-(7)---5---7b9-7-|
|--------------------------|-----------------|
|--------------------------|-----------------|
|--------------------------|-----------------|


|------------------------|-----------------8-10s12-10-8----|
|------------------------|------------8-10--------------10-|
|-(7)---9-(9)b10--(9)----|-------9-10----------------------|
|---------------------10-|-(10)----------------------------|
|------------------------|---------------------------------|
|------------------------|---------------------------------|


|-8------7----|--(7)----*|
|--------8----|--(8)----*|
|--------9----|--(9)----*|
|--------9----|--(9)----*|
|--------7----|--(7)----*|
|-------------|---------*|





Comments


Popular Hurriganes tabs & chords
11th Street Boogie Bass Tabs
I Will Stay Bass Tabs
I Will Stay 1 Chords
11th Street Boogie Tabs
Crazy Days Tabs
Hey Groopie Intro Tabs
Hot City Tabs
I Saw Her Standing There Tabs
Say Mama Tabs
Walkin The Dog 1 Tabs


Song lyrics



↑ Back to top | Tablatures and chords are parodies/interpretations of the original songs. You may use it for private study, scholarship, research or language learning purposes only
© 2014 AZChords.com Contact us | Privacy policy | DMCA | Add/correct tabs | Request tabs | Top 50 tabs