>
 >
Keep On Knocking 1

Keep On Knocking 1 Guitar Tabs

Hurriganes - Keep On Knocking 1 chords, tabs, tablatures, lyrics

Guitar lessons | Add/correct | Request | Top 50 tabs Artists:  A B C D E F G H I J K L M N O P Q R S T U V W X Y Z 0-9

Keep On Knocking 1 Guitar Tabs – Hurriganes

CD, Sheet music, Poster

Do you like Keep On Knocking 1? Share with your friends now
TabsTabs v2
Hurriganes - Keep on Knocking
tuning - standart

Intro

Solo guitar 1.
|-----------------------------------|
|-----------------------------------|
|-9b---8----6----8----6-------------|
|-------------------------6---8-----|
|-----------------------------------|
|-----------------------------------|
|
|Rhytm guitar 2.
|-----------------------------------|
|-----------------------------------|
|-----------------------------------|
|-----------------------------------|
|-6/8-8-8--8-8--6/8-8-8--8-8--6/8---|
|-4/6-6-6--6-6--4/6-6-6--6-6--4/6---|

1.
|-----------9--------------------------|
|--------------------------------------|
|-6----8b------r----8----6-------------|
|-----------------------------8--------|
|--------------------------------------|
|--------------------------------------|
|
|2.
|--------------------------------------|
|--------------------------------------|
|--------------------------------------|
|--------------------------------------|
|-8-8--8-8--6/8-8-8--8-8--6/8-8-8--8-8-|
|-6-6--6-6--4/6-6-6--6-6--4/6-6-6--6-6-|

1.
|----------------------------------------|
|----------------------------------------|
|----------------------------------------|
|-------6----6----8--------8----6----8---|
|--7-------------------------------------|
|----------------------------------------|
|
|----------------------------------------|
|----------------------------------------|
|----------------------------------------|
|----------------------------------------|
|-6/8-8-8--8-8--6/8-8-8--8-8--6/8-8--8-8-|
|-4/6-6-6--6-6--4/6-6-6--6-6--4/6-6--6-6-|

Verse
Rhytmn guitar plays this WHOLE song
|-------------------------------------|
|-------------------------------------|
|-------------------------------------|
|-------------------------------------|
|-8--8-10--8--8-10--8--8-10--8--8-10--|
|-6--6--8--6--6--8--6--6--8--6--6--8--|

Solo-guitar adds to every beat
|-----|-----|-----|-----|
|-----|-----|-----|-----|
|-----|-----|-----|-----|
|-----|-----|-----|-----| x2
|-6/8-|-6/8-|-9/8-|-6/8-|
|-4/6-|-4/6-|-7/6-|-4/6-|


Guitar solo
|-------------------------------------|-------------------------------------|
|-------------------------------------|-------------------------------------|
|---------8------8-------8p6---8------|---------8------8-------8p6---8------|
|-8---8-------8-------8------8--------|-8---8-------8-------8------8--------|
|-------------------------------------|-------------------------------------|
|-------------------------------------|-------------------------------------|

|-------------------------------------|-------------------------------------|
|-------------------------------------|-------------------------------------|
|-8--8p68p6-------6-------8---------8-|---------8------8------8p6-----8-----|
|--------------8---------------8------|-8--8--------8-------8------8--------|
|-------------------------------------|-------------------------------------|
|-------------------------------------|-------------------------------------|

|---------------9---11b---11--9-------|-------------------------------------|
|------9---11----------------------11-|-9-----------------------------------|
|--11---------------------------------|-----9/8----9p8----8---9p8-----9-----|
|-------------------------------------|-----------------9----------9--------|
|-------------------------------------|-------------------------------------|
|-------------------------------------|-------------------------------------|

|-------------------------------------|--11b--9-------------------------------------|
|-9h11p9h11p9h11p9h11p9h11p9h11p9h11--|-----------11---9----------------------------|
|-------------------------------------|--------------------9---8-----------6-h8p6h8-|
|-------------------------------------|---------------------------6--6---8----------|
|-------------------------------------|---------------------------------------------|
|-------------------------------------|---------------------------------------------|


Verse
Rhytmn guitar plays this WHOLE song
|-------------------------------------|
|-------------------------------------|
|-------------------------------------|
|-------------------------------------|
|-8--8-10--8--8-10--8--8-10--8--8-10--|
|-6--6--8--6--6--8--6--6--8--6--6--8--|

Solo-guitar adds to every beat
|-----|-----|-----|-----|
|-----|-----|-----|-----|
|-----|-----|-----|-----|
|-----|-----|-----|-----| x2
|-6/8-|-6/8-|-9/8-|-6/8-|
|-4/6-|-4/6-|-7/6-|-4/6-|

Guitar solo 2
|--12---11------11-----11p9------11---|--12---11------11-----11p9------11---|
|--11-------11-----11--------11-------|--11-------11-----11--------11-------|
|-------------------------------------|-------------------------------------|
|-------------------------------------|-------------------------------------|
|-------------------------------------|-------------------------------------|
|-------------------------------------|-------------------------------------|

|-12---11---------12--11-------12--11------11-|-------------------------------------|
|-11--------11----11-------11--11------11-----|-9-11-9-11-9-11-9-11-9-11-9-11-9-11--|
|---------------------------------------------|-------------------------------------|
|---------------------------------------------|-------------------------------------|
|---------------------------------------------|-------------------------------------|
|---------------------------------------------|-------------------------------------|

|-----------------14--16--17b--16--14--------|-------------------------------------|
|-12--14--16--17-----------------------17--16|--17--14--17--17-17-17-17-17-17-17---|
|--------------------------------------------|--------------14-14-14-14-14-14-14---|
|--------------------------------------------|-------------------------------------|
|--------------------------------------------|-------------------------------------|
|--------------------------------------------|-------------------------------------|

|--------------------------------------------|
|-17p1417p14p17p14p17p14p17p14p17------------|
|----------------------------------14-12--14\|
|--------------------------------------------|
|--------------------------------------------|
|--------------------------------------------|

Verse
Rhytmn guitar plays this WHOLE song
|-------------------------------------|
|-------------------------------------|
|-------------------------------------|
|-------------------------------------|
|-8--8-10--8--8-10--8--8-10--8--8-10--|
|-6--6--8--6--6--8--6--6--8--6--6--8--|

Solo-guitar adds to every beat
|-----|-----|-----|-----|
|-----|-----|-----|-----|
|-----|-----|-----|-----|
|-----|-----|-----|-----| x2
|-6/8-|-6/8-|-9/8-|-6/8-|
|-4/6-|-4/6-|-7/6-|-4/6-|

Ending
|----------------------7---9b-7-----------|
|-9b-7--9--7--9-----9------------9--7-----|
|----------------8--------------------8\6-|
|-----------------------------------------|
|-----------------------------------------|
|-----------------------------------------|





Comments


Popular Hurriganes tabs & chords
Talking Bout You Bass Tabs
My Only One Chords
Hear Me Calling Tabs
Lipstick-man Tabs
Made In Sweden Tabs
My Only One Tabs
Roadrunner Tabs
Talkin 'Bout You Tabs
Talkin Bout You 1 Tabs
Tiger Tabs


Song lyrics



↑ Back to top | Tablatures and chords are parodies/interpretations of the original songs. You may use it for private study, scholarship, research or language learning purposes only
© 2014 AZChords.com Contact us | Privacy policy | DMCA | Add/correct tabs | Request tabs | Top 50 tabs