>
 >
Keep On Knocking

Keep On Knocking Guitar Tabs

Hurriganes - Keep On Knocking chords, tabs, tablatures, lyrics

Guitar lessons | Add/correct | Request | Top 50 tabs Artists:  A B C D E F G H I J K L M N O P Q R S T U V W X Y Z 0-9

Keep On Knocking Guitar Tabs – Hurriganes

CD, Sheet music, Poster

Do you like Keep On Knocking? Share with your friends now
TabsTabs v2
Hurriganes- Keep on Knocking


Gtr.1                               


                          |------3------|    |----3----|     
     W                    Q      Q      Q    Q    Q    Q     
E||--------------------|------------------------------------|
B||--------------------|------------------------------------|
G||--8b----------------|--Lpb----8b-----8----6----8----6----|
D||--------------------|------------------------------------|
A||--------------------|------------------------------------|
E||--------------------|------------------------------------|


                                                            W           
  H.           E  E      E  Q    H         E     Q    E  S  H        S  
----------------------|-----6----9b-----------|--6---------------------|
----------------------|-----6-----------------|------------------------|
------------------6h--|--7--------------------|-------8--6h-7----------|
--8-------------------|-----------------------|------------------------|
----------------------|-----------------------|------------------------|
----------------------|-----------------------|------------------------|


       PM            W     W                                          
  Q    Q    E  E  E  E     W                   E  E  H        E  E    
------------------------|-------------------|------------------------|
------------------------|-------------------|------------------------|
------------------6--7--|--L----------------|--------------------7S--|
-------8----6--8--------|-------------------|--8--6--8-----------7S--|
------------------------|-------------------|--------------------5S--|
------------------------|-------------------|------------------------|


  W                   H.           E  E      W                 
-------------------|----------------------|-------------------|
-------------------|----------------------|-------------------|
--8----------------|--L---------------7S--|--8----------------|
--8----------------|--L---------------7S--|--8----------------|
--6----------------|--L---------------5S--|--6----------------|
-------------------|----------------------|-------------------|


  H.           E  E      W                   H.           E  E    
----------------------|-------------------|----------------------|
----------------------|-------------------|----------------------|
--L-------------------|-------------------|------------------7S--|
--L---------------7S--|--8----------------|--L---------------7S--|
--L---------------7S--|--8----------------|--L---------------5S--|
------------------5S--|--6----------------|--L-------------------|


  W                   H.           E  E      W                 
-------------------|----------------------|-------------------|
-------------------|----------------------|-------------------|
--8----------------|--L---------------7S--|--8----------------|
--8----------------|--L---------------7S--|--8----------------|
--6----------------|--L---------------5S--|--6----------------|
-------------------|----------------------|-------------------|


  H.           E  E      W                   H.           E  E    
----------------------|-------------------|----------------------|
----------------------|-------------------|----------------------|
--L---------------7S--|--8----------------|--L-------------------|
--L---------------7S--|--8----------------|--L---------------7S--|
--L---------------5S--|--6----------------|--L---------------7S--|
----------------------|-------------------|------------------5S--|


  W                   H.           E  E      W                 
-------------------|----------------------|-------------------|
-------------------|----------------------|-------------------|
-------------------|------------------7S--|--8----------------|
--8----------------|--L---------------7S--|--8----------------|
--8----------------|--L---------------5S--|--6----------------|
--6----------------|--L-------------------|-------------------|


  H.           E  E     E    E  E   E  Q     E  E     E  E   E  Q    E   E  E   
---------------------|-----------------------------|---------------------------|
---------------------|-----------------------------|---------------------------|
--L------------------|----------8------8-----------|--8--8------8----8---------|
--L---------------8--|--8S--10-----10-------10--8--|--------10----------10--8--|
--L------------------|-----------------------------|---------------------------|
---------------------|-----------------------------|---------------------------|


  E    E  E   E  Q     E  E     E  E   E  Q    E   E  E   
-----------------------------|---------------------------|
-----------------------------|---------------------------|
----------8------8-----------|--8--8------8----8---------|
--8S--10-----10-------10--8--|--------10----------10--8--|
-----------------------------|---------------------------|
-----------------------------|---------------------------|


           |---3--|                  |----3---|                      
   E   E   E  E   E  Q     E  E      E     E  E   E   Q.      E  E   
---------------------------------|----------------------------------|
---------------------------------|----------------------------------|
--10b--8--10--8------8----10--8--|--10br--10--8--10--10------10--8--|
-----------------10--------------|----------------------------------|
---------------------------------|----------------------------------|
---------------------------------|----------------------------------|


  E    E  E   E  Q     E  E     E  E   E  Q    E  E  E   
-----------------------------|--------------------------|
-----------------------------|--------------------------|
----------8------8--------8--|--8--8------8----8--8--8--|
--8S--10-----10-------10-----|--------10----------------|
-----------------------------|--------------------------|
-----------------------------|--------------------------|


                                                               W   
    E   E   E   E   H             E    E   E   E   E   E   E   E   
---------------11-------------|-------11--------------------------|
-----------11------14b--------|---Lb------14--11------11----------|
-------11---------------------|-------------------13------11--12--|
--/13-------------------------|-----------------------------------|
------------------------------|-----------------------------------|
------------------------------|-----------------------------------|


   W         PM                                                   
   Q     E   E   E   E   E   E      E   E   E   Q     E   E   E   
--------------------------------|--------------------------------|
--------------------------------|--------------------11--14--11--|
---L--------------------11--12--|------13------11----------------|
--------13------11--13----------|--13------13--------------------|
------------13------------------|--------------------------------|
--------------------------------|--------------------------------|


   tr                       tr                    
   W                        W                     
------------------------|------------------------|
--14(11)----------------|--14(11)----------------|
------------------------|------------------------|
------------------------|------------------------|
------------------------|------------------------|
------------------------|------------------------|


                              W      W         PM                  
   Q      E   E   E   E   E   E      Q     E   E   E   E   E   E   
--14b----11----------------------|--------------------------------|
-------------11------11----------|--------------------------------|
-----------------13------11--12--|---L--------------------11--12--|
---------------------------------|--------13------11--13----------|
---------------------------------|------------13------------------|
---------------------------------|--------------------------------|


   Q     E   E   Q     E   E      E   E   E   E   E   E   E   E   
--14----11------11------------|--11--11------11---L--11----------|
--13--------13--11----13--11--|----------13--------------13--11--|
------------------------------|----------------------------------|
------------------------------|----------------------------------|
------------------------------|----------------------------------|
------------------------------|----------------------------------|


   Q     E   E   Q     E   E      E   E   E   E   E   E   E   E   
--14----11------11------------|--11--11------11---L--11------11--|
--13--------13--11----13--11--|----------13--------------13------|
------------------------------|----------------------------------|
------------------------------|----------------------------------|
------------------------------|----------------------------------|
------------------------------|----------------------------------|


   Q     E   E   Q     E   E      Q     E   E   Q     E   E   
--14----11------14----11------|--14----11------11------------|
--13--------13--13--------13--|--13--------13--------13--11--|
------------------------------|------------------------------|
------------------------------|------------------------------|
------------------------------|------------------------------|
------------------------------|------------------------------|


   E    E   E   E    E   E   E    E      E   E    E   E   E    E   E   E    
-------------------------------------|-------------------------------------|
-----------11-----------11-----------|--11-----------11-----------11-------|
--11S--12------11S--12------11S--12--|------11S--12------11S--12------11S--|
-------------------------------------|-------------------------------------|
-------------------------------------|-------------------------------------|
-------------------------------------|-------------------------------------|


   E   E   E   E   Q     E   E      E   Q     Q.      E   E   
------11--11------11--------11--|--15--16----18------15--16--|
--13----------13--------13------|----------------------------|
--------------------------------|----------------------------|
--------------------------------|----------------------------|
--------------------------------|----------------------------|
--------------------------------|----------------------------|


   E   E   H         E   E      E   E   E   Q     E   E   E   
--15------------------------|--11--11------11----11----------|
------16------------11--13--|----------13------------13--11--|
----------15----------------|--------------------------------|
----------------------------|--------------------------------|
----------------------------|--------------------------------|
----------------------------|--------------------------------|


   E   E   E   E   E   E   E   E      E   E   E   E   E   E   E   E   
------14--14--14--14--14--14--14--|--14--14--14--14--14--14--14--14--|
--11--13--13--13--13--13--13--13--|--13--13--13--13--13--13--13--13--|
----------------------------------|----------------------------------|
----------------------------------|----------------------------------|
----------------------------------|----------------------------------|
----------------------------------|----------------------------------|


   S  E.   S  E.   S  E.   S  E.      Q      E   Q.      E   E   
--14-11---14-11---14-11---14-11---|-----------------------------|
--13-11---13-11---13-11---13-11---|-----------------------------|
----------------------------------|--13b----13--11--------------|
----------------------------------|---------------------13--12--|
----------------------------------|-----------------------------|
----------------------------------|-----------------------------|


   Q    H.              H.           E  E      W                 
---------------------|----------------------|-------------------|
---------------------|----------------------|-------------------|
---------------------|------------------7S--|--8----------------|
--13-----------------|------------------7S--|--8----------------|
---------------------|------------------5S--|--6----------------|
---------------------|----------------------|-------------------|


  H.           E  E      W                   H.           E  E    
----------------------|-------------------|----------------------|
----------------------|-------------------|----------------------|
--L-------------------|-------------------|------------------7S--|
--L---------------7S--|--8----------------|--L---------------7S--|
--L---------------7S--|--8----------------|--L---------------5S--|
------------------5S--|--6----------------|--L-------------------|


  W                   H.           E  E      W                 
-------------------|----------------------|-------------------|
-------------------|----------------------|-------------------|
--8----------------|--L---------------7S--|--8----------------|
--8----------------|--L---------------7S--|--8----------------|
--6----------------|--L---------------5S--|--6----------------|
-------------------|----------------------|-------------------|


  H.           E  E      W                   H.           E  E    
----------------------|-------------------|----------------------|
----------------------|-------------------|----------------------|
--L---------------7S--|--8----------------|--L-------------------|
--L---------------7S--|--8----------------|--L---------------7S--|
--L---------------5S--|--6----------------|--L---------------7S--|
----------------------|-------------------|------------------5S--|


  W                   H.           E  E     Q    H.            
-------------------|---------------------|--------------------|
-------------------|---------------------|--------------------|
-------------------|------------------7--|--8-----------------|
--8----------------|--L---------------7--|--8-----------------|
--8----------------|--L---------------5--|--6-----------------|
--6----------------|--L------------------|--------------------|


                                  W                   
  W                    Q      E   E   E   E   E   E   
-------------------|---------------------------------|
-------------------|---------------------------------|
-------------------|--13b----13--11------13------11--|
-------------------|-----------------13------13------|
-------------------|---------------------------------|
-------------------|---------------------------------|


   E   E    E   E   E.    S  E   E      E    E   E   E   H          
---------------11--------11---------|-----------------------------||
-----------11------14b------14--11--|-----------------------------||
--11--13b---------------------------|--13b--13--11--12---L--------||
------------------------------------|-----------------------------||
------------------------------------|-----------------------------||
------------------------------------|-----------------------------||




Gtr.2
                               

     E  E  E  Q    E  E  E     E  E  E  Q    E  E  E   
E||-------------------------|-------------------------|
B||-------------------------|-------------------------|
G||-------------------------|-------------------------|
D||--8--8--8--8----8--8--8--|--8--8--8--8----8--8--8--|
A||--8--8--8--8----8--8--8--|--8--8--8--8----8--8--8--|
E||--6--6--6--6----6--6--6--|--6--6--6--6----6--6--6--|


  E  E  E  Q    E  E  E     E  E  E  Q    E  E  E     E  E  E  Q    E  E  E   
-------------------------|-------------------------|-------------------------|
-------------------------|-------------------------|-------------------------|
-------------------------|-------------------------|-------------------------|
--8--8--8--8----8--8--8--|--8--8--8--8----8--8--8--|--8--8--8--8----8--8--8--|
--8--8--8--8----8--8--8--|--8--8--8--8----8--8--8--|--8--8--8--8----8--8--8--|
--6--6--6--6----6--6--6--|--6--6--6--6----6--6--6--|--6--6--6--6----6--6--6--|


  E  E  E  Q    E  E  E     E  E  E  Q    E  E  E     E  E  E  Q    E  E  E   
-------------------------|-------------------------|-------------------------|
-------------------------|-------------------------|-------------------------|
-------------------------|-------------------------|-------------------------|
--8--8--8--8----8--8--8--|--8--8--8--8----8--8--8--|--8--8--8--8-------------|
--8--8--8--8----8--8--8--|--8--8--8--8----8--8--8--|--8--8--8--8-------4--5--|
--6--6--6--6----6--6--6--|--6--6--6--6----6--6--6--|--6--6--6--6----6--------|


  E  E   E  E  E  E   E  E     E  E   E  E  E  E   E  E   
----------------------------|----------------------------|
----------------------------|----------------------------|
----------------------------|----------------------------|
--8--8--10--8--8--8--10--8--|--8--8--10--8--8--8--10--8--|
--6--6---6--6--6--6---6--6--|--6--6---6--6--6--6---6--6--|
----------------------------|----------------------------|


  E  E   E  E  E  E   E  E     E  E   E  E  E  E   E  E   
----------------------------|----------------------------|
----------------------------|----------------------------|
----------------------------|----------------------------|
--8--8--10--8--8--8--10--8--|--8--8--10--8--8--8--10--8--|
--6--6---6--6--6--6---6--6--|--6--6---6--6--6--6---6--6--|
----------------------------|----------------------------|


  E  E   E  E  E  E   E  E     E  E   E  E  E  E   E  E   
----------------------------|----------------------------|
----------------------------|----------------------------|
----------------------------|----------------------------|
----------------------------|----------------------------|
--8--8--10--8--8--8--10--8--|--8--8--10--8--8--8--10--8--|
--6--6---6--6--6--6---6--6--|--6--6---6--6--6--6---6--6--|


  E  E   E  E  E  E   E  E     E  E   E  E  E  E   E  E   
----------------------------|----------------------------|
----------------------------|----------------------------|
----------------------------|----------------------------|
--8--8--10--8--8--8--10--8--|--8--8--10--8--8--8--10--8--|
--6--6---6--6--6--6---6--6--|--6--6---6--6--6--6---6--6--|
----------------------------|----------------------------|


  E  E   E  E  E  E   E  E     E  E   E  E  E  E   E  E   
----------------------------|----------------------------|
----------------------------|----------------------------|
----------------------------|----------------------------|
--8--8--10--8--8--8--10--8--|--8--8--10--8--8--8--10--8--|
--6--6---6--6--6--6---6--6--|--6--6---6--6--6--6---6--6--|
----------------------------|----------------------------|


  E  E   E  E  E  E   E  E     E  E   E  E  E  E   E  E   
----------------------------|----------------------------|
----------------------------|----------------------------|
----------------------------|----------------------------|
--8--8--10--8--8--8--10--8--|--8--8--10--8--8--8--10--8--|
--6--6---6--6--6--6---6--6--|--6--6---6--6--6--6---6--6--|
----------------------------|----------------------------|


  E  E   E  E  E  E   E  E     E  E   E  E  E  E   E  E   
----------------------------|----------------------------|
----------------------------|----------------------------|
----------------------------|----------------------------|
----------------------------|----------------------------|
--8--8--10--8--8--8--10--8--|--8--8--10--8--8--8--10--8--|
--6--6---6--6--6--6---6--6--|--6--6---6--6--6--6---6--6--|


  E  E   E  E  E  E   E  E     E  E   E  E  E  E   E  E   
----------------------------|----------------------------|
----------------------------|----------------------------|
----------------------------|----------------------------|
--8--8--10--8--8--8--10--8--|--8--8--10--8--8--8--10--8--|
--6--6---6--6--6--6---6--6--|--6--6---6--6--6--6---6--6--|
----------------------------|----------------------------|


  E  E   E  E  E  E   E  E     E  E   E  E  E  E   E  E   
----------------------------|----------------------------|
----------------------------|----------------------------|
----------------------------|----------------------------|
--8--8--10--8--8--8--10--8--|--8--8--10--8--8--8--10--8--|
--6--6---6--6--6--6---6--6--|--6--6---6--6--6--6---6--6--|
----------------------------|----------------------------|


  E  E   E  E  E  E   E  E     E  E   E  E  E  E   E  E   
----------------------------|----------------------------|
----------------------------|----------------------------|
----------------------------|----------------------------|
--8--8--10--8--8--8--10--8--|--8--8--10--8--8--8--10--8--|
--6--6---6--6--6--6---6--6--|--6--6---6--6--6--6---6--6--|
----------------------------|----------------------------|


  E  E   E  E  E  E   E  E     E  E   E  E  E  E   E  E   
----------------------------|----------------------------|
----------------------------|----------------------------|
----------------------------|----------------------------|
----------------------------|----------------------------|
--8--8--10--8--8--8--10--8--|--8--8--10--8--8--8--10--8--|
--6--6---6--6--6--6---6--6--|--6--6---6--6--6--6---6--6--|


  E  E   E  E  E  E   E  E     E  E   E  E  E  E   E  E   
----------------------------|----------------------------|
----------------------------|----------------------------|
----------------------------|----------------------------|
--8--8--10--8--8--8--10--8--|--8--8--10--8--8--8--10--8--|
--6--6---6--6--6--6---6--6--|--6--6---6--6--6--6---6--6--|
----------------------------|----------------------------|


  E  E   E  E  E  E   E  E     E  E   E  E  E  E   E  E   
----------------------------|----------------------------|
----------------------------|----------------------------|
----------------------------|----------------------------|
--8--8--10--8--8--8--10--8--|--8--8--10--8--8--8--10--8--|
--6--6---6--6--6--6---6--6--|--6--6---6--6--6--6---6--6--|
----------------------------|----------------------------|


  E  E   E  E  E  E   E  E     E  E   E  E  E  E   E  E   
----------------------------|----------------------------|
----------------------------|----------------------------|
----------------------------|----------------------------|
--8--8--10--8--8--8--10--8--|--8--8--10--8--8--8--10--8--|
--6--6---6--6--6--6---6--6--|--6--6---6--6--6--6---6--6--|
----------------------------|----------------------------|


  E  E   E  E  E  E   E  E     E  E   E  E  E  E   E  E   
----------------------------|----------------------------|
----------------------------|----------------------------|
----------------------------|----------------------------|
----------------------------|----------------------------|
--8--8--10--8--8--8--10--8--|--8--8--10--8--8--8--10--8--|
--6--6---6--6--6--6---6--6--|--6--6---6--6--6--6---6--6--|


  E  E   E  E  E  E   E  E     E  E   E  E  E  E   E  E   
----------------------------|----------------------------|
----------------------------|----------------------------|
----------------------------|----------------------------|
--8--8--10--8--8--8--10--8--|--8--8--10--8--8--8--10--8--|
--6--6---6--6--6--6---6--6--|--6--6---6--6--6--6---6--6--|
----------------------------|----------------------------|


  E  E   E  E  E  E   E  E     E  E   E  E  E  E   E  E   
----------------------------|----------------------------|
----------------------------|----------------------------|
----------------------------|----------------------------|
--8--8--10--8--8--8--10--8--|--8--8--10--8--8--8--10--8--|
--6--6---6--6--6--6---6--6--|--6--6---6--6--6--6---6--6--|
----------------------------|----------------------------|


  E  E   E  E  E  E   E  E     E  E   E  E  E  E   E  E   
----------------------------|----------------------------|
----------------------------|----------------------------|
----------------------------|----------------------------|
--8--8--10--8--8--8--10--8--|--8--8--10--8--8--8--10--8--|
--6--6---6--6--6--6---6--6--|--6--6---6--6--6--6---6--6--|
----------------------------|----------------------------|


  E  E   E  E  E  E   E  E     E  E   E  E  E  E   E  E   
----------------------------|----------------------------|
----------------------------|----------------------------|
----------------------------|----------------------------|
----------------------------|----------------------------|
--8--8--10--8--8--8--10--8--|--8--8--10--8--8--8--10--8--|
--6--6---6--6--6--6---6--6--|--6--6---6--6--6--6---6--6--|


  E  E   E  E  E  E   E  E     E  E   E  E  E  E   E  E   
----------------------------|----------------------------|
----------------------------|----------------------------|
----------------------------|----------------------------|
--8--8--10--8--8--8--10--8--|--8--8--10--8--8--8--10--8--|
--6--6---6--6--6--6---6--6--|--6--6---6--6--6--6---6--6--|
----------------------------|----------------------------|


  E  E   E  E  E  E   E  E     E  E   E  E  E  E   E  E   
----------------------------|----------------------------|
----------------------------|----------------------------|
----------------------------|----------------------------|
--8--8--10--8--8--8--10--8--|--8--8--10--8--8--8--10--8--|
--6--6---6--6--6--6---6--6--|--6--6---6--6--6--6---6--6--|
----------------------------|----------------------------|


  E  E   E  E  E  E   E  E     E  E   E  E  E  E   E  E   
----------------------------|----------------------------|
----------------------------|----------------------------|
----------------------------|----------------------------|
--8--8--10--8--8--8--10--8--|--8--8--10--8--8--8--10--8--|
--6--6---6--6--6--6---6--6--|--6--6---6--6--6--6---6--6--|
----------------------------|----------------------------|


  E  E   E  E  E  E   E  E     E  E   E  E  E  E   E  E   
----------------------------|----------------------------|
----------------------------|----------------------------|
----------------------------|----------------------------|
----------------------------|----------------------------|
--8--8--10--8--8--8--10--8--|--8--8--10--8--8--8--10--8--|
--6--6---6--6--6--6---6--6--|--6--6---6--6--6--6---6--6--|


  E  E   E  E  E  E   E  E     E  E   E  E  E  E   E  E   
----------------------------|----------------------------|
----------------------------|----------------------------|
----------------------------|----------------------------|
--8--8--10--8--8--8--10--8--|--8--8--10--8--8--8--10--8--|
--6--6---6--6--6--6---6--6--|--6--6---6--6--6--6---6--6--|
----------------------------|----------------------------|


  E  E   E  E  E  E   E  E     E  E   E  E  E  E   E  E   
----------------------------|----------------------------|
----------------------------|----------------------------|
----------------------------|----------------------------|
--8--8--10--8--8--8--10--8--|--8--8--10--8--8--8--10--8--|
--6--6---6--6--6--6---6--6--|--6--6---6--6--6--6---6--6--|
----------------------------|----------------------------|


  E  E   E  E  E  E   E  E     E  E   E  E  E  E   E  E   
----------------------------|----------------------------|
----------------------------|----------------------------|
----------------------------|----------------------------|
--8--8--10--8--8--8--10--8--|--8--8--10--8--8--8--10--8--|
--6--6---6--6--6--6---6--6--|--6--6---6--6--6--6---6--6--|
----------------------------|----------------------------|


  E  E   E  E  E  E   E  E     E  E   E  E  E  E   E  E   
----------------------------|----------------------------|
----------------------------|----------------------------|
----------------------------|----------------------------|
----------------------------|----------------------------|
--8--8--10--8--8--8--10--8--|--8--8--10--8--8--8--10--8--|
--6--6---6--6--6--6---6--6--|--6--6---6--6--6--6---6--6--|


  E  E   E  E  E  E   E  E     E  E   E  E  E  E   E  E   
----------------------------|----------------------------|
----------------------------|----------------------------|
----------------------------|----------------------------|
--8--8--10--8--8--8--10--8--|--8--8--10--8--8--8--10--8--|
--6--6---6--6--6--6---6--6--|--6--6---6--6--6--6---6--6--|
----------------------------|----------------------------|


  E  E   E  E  E  E   E  E     E  E   E  E  E  E   E  E   
----------------------------|----------------------------|
----------------------------|----------------------------|
----------------------------|----------------------------|
--8--8--10--8--8--8--10--8--|--8--8--10--8--8--8--10--8--|
--6--6---6--6--6--6---6--6--|--6--6---6--6--6--6---6--6--|
----------------------------|----------------------------|


  E  E   E  E  E  E   E  E     E  E   E  E  E  E   E  E   
----------------------------|----------------------------|
----------------------------|----------------------------|
----------------------------|----------------------------|
--8--8--10--8--8--8--10--8--|--8--8--10--8--8--8--10--8--|
--6--6---6--6--6--6---6--6--|--6--6---6--6--6--6---6--6--|
----------------------------|----------------------------|


  E  E   E  E  E  E   E  E     E  E   E  E  E  E   E  E     Q    H.            
----------------------------|----------------------------|--------------------|
----------------------------|----------------------------|--------------------|
----------------------------|----------------------------|--------------------|
----------------------------|----------------------------|--8-----------------|
--8--8--10--8--8--8--10--8--|--8--8--10--8--8--8--10--8--|--6-----------------|
--6--6---6--6--6--6---6--6--|--6--6---6--6--6--6---6--6--|--------------------|


  W                   W                   W                 
-------------------|-------------------|-------------------|
-------------------|-------------------|-------------------|
-------------------|-------------------|-------------------|
-------------------|-------------------|-------------------|
-------------------|-------------------|-------------------|
-------------------|-------------------|-------------------|


  W                  
-------------------||
-------------------||
-------------------||
-------------------||
-------------------||
-------------------||




Duration Legend
---------------
W - whole
H - half
Q - quarter
E - 8th
S - 16th
T - 32nd
X - 64th
. - note dotted
|-n-|  - n-tuplets


Tablature Legend
----------------
L - tied note
x - dead note
g - grace note
(n) - ghost note
> - accentuded note
NH - natural harmonic
AH - artificial harmonic
TH - tapped harmonic
SH - semi harmonic
PH - pitch harmonic
h - hammer on
p - pull off
b - bend
br - bendRelease
pb - preBend
pbr - preBendRelease
brb - bendReleaseBend
\n/ - tremolo bar dip
\n - tremolo bar dive
-/n - tremolo bar Release up
/n\ - tremolo bar inverted dip
/n - tremolo bar return
-\n - tremolo bar Release down
S - shift slide
s - legato slide
/ -  slide into from below or out of upwards
\ -  slide into from above or out of downwards
~ - vibrato
W - wide vibrato
tr - trill
TP - tremolo picking
T - tapping
S - slap
P - pop
< - fade in
^ - brush up
v - brush down





Comments


Popular Hurriganes tabs & chords
Keep On Movin Chords
11th Street Boogie Tabs
An Awful Crime Tabs
Bourbon Street Tabs
Goodnight Baby Tabs
Hip Down Tabs
Slippin And Slidin Tabs
Trippers Story Tabs
I Will Stay Ukulele
Pain In My Heart Ukulele


Song lyrics



↑ Back to top | Tablatures and chords are parodies/interpretations of the original songs. You may use it for private study, scholarship, research or language learning purposes only
© 2014 AZChords.com Contact us | Privacy policy | DMCA | Add/correct tabs | Request tabs | Top 50 tabs