» » »

Hurriganes, It Ain't What You Do Tabs (ver.2)

Artists:  A B C D E F G H I J K L M N O P Q R S T U V W X Y Z # 

It Ain't What You Do Tabs (ver.2)

Hurriganes Tabs
Rating:
4/5 (1 vote)
It Ain't What You Do lessons Tabs too difficult? Try these video lessons and learn fast
                -------------------------------------------------------------------------------
Hurriganes-It Ain't What You Do
Roadrunner (1974)
-------------------------------------------------------------------------------

Intro P.M.----------------------|       P.M.----------------------|
e|---------------------------------------------------------------------------|
B|---------------------------------------------------------------------------|
G|---------------------------------------------------------------------------|
D|---------------------------------------------------------------------------| 2x
A|--------------------------------7p5-----------------------------------5----|
E|----0-0-0-0-0-0-0-0-0-0-0-0-0-0-----7-0-0-0-0-0-0-0-0-0-0-0-0-0-0-5h7------|

Verse 1
      P.M.-------------------------------| .25  .25        .25   .25
e|---------------------------------------------------------------------------|
B|-----------------------------------------12----12---------12----12---------|
G|-----------------------------------------12----12---------12----12---------|
D|--------------------------------------------14----14---------14----14------| 2x
A|---------------------------------------------------------------------------|
E|----0-0-0-0-0-0-0-0-0-0-0-0-0-0-0-0-0--0-------------0--0------------------|

      P.M.-------------------------------| .25  .25        .25   .25
e|---------------------------------------------------------------------------|
B|-----------------------------------------17----17---------17----17---------|
G|-----------------------------------------17----17---------17----17---------|
D|--------------------------------------------19----19---------19----19------|
A|----0-0-0-0-0-0-0-0-0-0-0-0-0-0-0-0-0--0-------------0--0------------------|
E|---------------------------------------------------------------------------|

     P.M.--------------------------------| .25  .25        .25   .25
e|---------------------------------------------------------------------------|
B|-----------------------------------------12----12---------12----12---------|
G|-----------------------------------------12----12---------12----12---------|
D|--------------------------------------------14----14---------14----14------| 
A|---------------------------------------------------------------------------|
E|----0-0-0-0-0-0-0-0-0-0-0-0-0-0-0-0-0--0-------------0--0------------------|

Chorus                         .25  .25
e|-----------------   ------------------------|
B|-----------------   -------12----12---------|
G|-----------------   -------12----12---------| 4x
D|--4--4--4--4--2--   ----------14----14------|
A|--2--2--2--2--0--   ------------------------|
E|-----------------   --0--0------------------|

Verse 2
      P.M.-------------------------|       .25  .25        .25   .25
e|---------------------------------------------------------------------------|
B|-----------------------------------------12----12---------12----12---------|
G|-----------------------------------------12----12---------12----12---------|
D|--------------------------------------------14----14\--------14----14\-----| 2x
A|---------------------------------------------------------------------------|
E|----0-0-0-0-0-0-0-0-0-0-0-0-0-0-0-0-0--0-------------0--0------------------|

      P.M.--------------------------|      .25   .25         .25   .25
e|---------------------------------------------------------------------------|
B|------------------------------------------5-----5-----------5-----5--------|
G|------------------------------------------5-----5-----------5-----5--------|
D|---------------------------------------------7-----7-----------7-----7-----|
A|----0-0-0-0-0-0-0-0-0-0-0-0-0-0-0-0-0--0--------------0--0-----------------|
E|---------------------------------------------------------------------------|

      P.M.--------------------------|     .25   .25        .25   .25
e|---------------------------------------------------------------------------|
B|-----------------------------------------12----12---------12----12---------|
G|-----------------------------------------12----12---------12----12---------|
D|--------------------------------------------14----14\--------14----14\-----| 
A|---------------------------------------------------------------------------|
E|----0-0-0-0-0-0-0-0-0-0-0-0-0-0-0-0-0--0-------------0--0------------------|

Chorus                         .25  .25
e|-----------------   ------------------------|
B|-----------------   -------12----12---------|
G|-----------------   -------12----12---------| 4x
D|--4--4--4--4--2--   ----------14----14\-----|
A|--2--2--2--2--0--   ------------------------|
E|-----------------   --0--0------------------|

Solo
e|--------0------------------------------------------------------------------|
B|--------0------------------0---2---0------------------------------0--------|
G|--4-2/4---2p0---0----------0---2---0--------0---2b4-0-2p0---------0--------|
D|--------------2---2--0h2-2---2---2----0h2-2---2-----------2-0h2-2---2------|
A|---------------------------------------------------------------------------|
E|---------------------------------------------------------------------------|

e|----------------------------------------------------------------10---------|
B|--------------8---8---8---8---8---8---8---8---8---8---8---8/-12----12------|
G|--2p0---0--/9---9---9---9---9---9---9---9---9---9---9---9------------------|
D|------2--------------------------------------------------------------------|
A|---------------------------------------------------------------------------|
E|---------------------------------------------------------------------------|

e|--10----10----10----10----10----10----10----10----10-----0-----------------|
B|-----12----12----12----12----12----12----12----12----12\-0----0------------|
G|-----------------------------------------------------------------2-2b4-----|
D|-----------------------------------------------------------/2--------------|
A|---------------------------------------------------------------------------|
E|---------------------------------------------------------------------------|

e|---------------------------------------------------------------------------|
B|---------0---------------0-2-0-2-0-2-0-2-0-2-------------------------------|
G|---2p0---0---2p0---0-0---0-2-0-2-0-2-0-2-0-2p0-----------------------------|
D|-------2---2-----2-----2-----------------------2---------------------------|
A|---------------------------------------------------------------------------|
E|---------------------------------------------------------------------------|

      P.M.----------------------|       P.M.----------------------|
e|---------------------------------------------------------------------------|
B|---------------------------------------------------------------------------|
G|---------------------------------------------------------------------------|
D|---------------------------------------------------------------------------| 2x
A|--------------------------------7p5-----------------------------------5----|
E|----0-0-0-0-0-0-0-0-0-0-0-0-0-0-----7-0-0-0-0-0-0-0-0-0-0-0-0-0-0-5h7------|

Verse 3
      P.M.-------------------------|       .25  .25        .25   .25
e|---------------------------------------------------------------------------|
B|-----------------------------------------12----12---------12----12---------|
G|-----------------------------------------12----12---------12----12---------|
D|--------------------------------------------14----14---------14----14------| 2x
A|---------------------------------------------------------------------------|
E|----0-0-0-0-0-0-0-0-0-0-0-0-0-0-0-0-0--0-------------0--0------------------|

      P.M.-------------------------|       .25  .25            
e|---------------------------------------------------------------------------|
B|-----------------------------------------5-----5-----------5--7b8r7b8r7p5--|
G|-----------------------------------------5-----5-----------5--7b8r7b8r7p5--|
D|--------------------------------------------7-----7-5-7--------------------|
A|----0-0-0-0-0-0-0-0-0-0-0-0-0-0-0-0-0--0-----------------------------------|
E|---------------------------------------------------------------------------|

     P.M.-------------------------|        .25  .25        .25   .25
e|---------------------------------------------------------------------------|
B|-----------------------------------------12----12---------12----12---------|
G|-----------------------------------------12----12---------12----12---------|
D|--------------------------------------------14----14---------14----14------| 
A|---------------------------------------------------------------------------|
E|----0-0-0-0-0-0-0-0-0-0-0-0-0-0-0-0-0--0-------------0--0------------------|

Chorus                         .25  .25
e|-----------------  |------------------------|
B|-----------------  |-------12----12---------|
G|-----------------  |-------12----12---------| 4x
D|--4--4--4--4--2--  |----------14----14------|
A|--2--2--2--2--0--  |------------------------|
E|-----------------  |--0--0------------------|

Outro
e|----------------------------------------|
B|--------------------12------------------|
G|--------------------12------------------| 2x
D|-----------------------14-12-14---------|
A|----------------------------------------|
E|----0-0-0-0-0-0-0-0---------------------|

e|----------------------------------------|
B|--------------------12------------------|
G|--------------------12------------------| 2x
D|-----------------------14-12-14---------|
A|----0-0-0-0-0-0-0-0---------------------|
E|----------------------------------------|

e|----------------------------------------|
B|--------------------12------------------|
G|--------------------12------------------| 2x
D|-----------------------14-12-14---------|
A|----------------------------------------|
E|----0-0-0-0-0-0-0-0---------------------|

e|------------------------------------------------||
B|---------------------------12----12------12-----||
G|---------------------------12----12------12-----||
D|--4--4--4--4--2--2--2--2------14----14-------14-||
A|--2--2--2--2--0--0--0--0------------------------||
E|------------------------------------------------||

                         
            

comments powered by Disqus
↑ Back to top | Hurriganes Tabs for It Ain't What You Do. Lyrics for acoustic guitar and electric guitar. Tablatures and chords are parodies/interpretations of the original songs. You may use it for private study, scholarship, research or language learning purposes only