» » »

Hurriganes, It Ain't What You Do Tabs (ver.1)

Artists:  A B C D E F G H I J K L M N O P Q R S T U V W X Y Z # 

It Ain't What You Do Tabs (ver.1)

Hurriganes Tabs
Rating:
4/5 (2 votes)
It Ain't What You Do lessons Tabs too difficult? Try these video lessons and learn fast
                Hurriganes - It ain't what you do
Intro
|-------------------------------------------------|
|-------------------------------------------------|
|-------------------------------------------------|
|-------------------------------------------------|
|--7---5---0---------------------------5----------|
|----------------------------5----7---------------| 
|                                                   x2
|-------------------------------------------------|
|-------------------------------------------------|
|-------------------------------------------------|
|-------------------------------------------------|
|-------------------------------------------------|
|-0-0--0--0-0--0--0-0--0-etc.---------------------|

verse
|-------------------------------------------------|
|---12---12--------12---12------------------------|
|---12---12--------12---12------------------------|
|------14---14\------14---14\---------------------|
|-------------------------------------------------|
|-0---------------0-------------------------------|  
|                                                 x2
|-------------------------------------------------|
|-------------------------------------------------|
|-------------------------------------------------|
|-------------------------------------------------|
|-------------------------------------------------|
|-0-0--0--0-0--0--0-0--0-etc.---------------------|

|-------------------------------------------------|
|---17--17--------17---17-------------------------|
|---17--17--------17---17-------------------------|
|-19--19---19\-19---19---19\----------------------|
|-------------------------------------------------|
|-------------------------------------------------|
|
|-------------------------------------------------|
|-------------------------------------------------|
|-------------------------------------------------|
|-------------------------------------------------|
|-0-0--0--0-0--0--0-0--0-etc.---------------------|
|-------------------------------------------------|

|-------------------------------------------------|
|---12---12--------12---12------------------------|
|---12---12--------12---12------------------------|
|------14---14\------14---14\---------------------|
|-------------------------------------------------|
|-0--------------0--------------------------------|
|                                                 
|-------------------------------------------------|
|-------------------------------------------------|
|-------------------------------------------------|
|-------------------------------------------------|
|-------------------------------------------------|
|-0-0--0--0-0--0--0-0--0-etc.---------------------|

Chorus
|-------------------------------------------------|
|-------------------------------------------------|
|-------------------------------------------------|
|-7----------7-----------7----------7-------------|
|-7----------7-----------7----------7-------------|
|-5----------5-----------5----------5-------------|

Solo this isn't my tabwork right here, but i think
it's good to put out here
|----0--------------------------------------------|
|----0------------------------0------2----0-------|
|-/4---4/------0--------------0------2----0-------|
|-----------2-----2--0---2--2-----2-----2----0----|
|-------------------------------------------------|
|-------------------------------------------------|

|-------------------------------------------------|
|-----------------------------0-----------0-------|
|-----0----2b--0--2--0--------0--2p0------0-------|
|--2-----2-------------0---2-----------2----------|
|-------------------------------------------------|
|-------------------------------------------------|

|-------------------------------------------------|
|-888888888888888888-15151515151515151515151515---|
|/999999999999999999-16161616161616161616161616---|
|-------------------------------------------------|
|-------------------------------------------------|
|-------------------------------------------------|

|-0-----------------------------------------------|
|-0-------0----------------0----------------------|
|--------------2b--2p0-----0----2p0----0----------|
|----0--2----2----------2-----2------2----0-------|
|-------------------------------------------------|
|-------------------------------------------------|

|-------------------------------------------------|
|------0-----2----0----2----0----2----0----2---0--|
|------0-----2----0----2----0----2----0----2---0--|
|-2--2----2-----2----2----2----2----2----2---2----|
|-------------------------------------------------|
|-------------------------------------------------|
            
Submit corrections

comments powered by Disqus
↑ Back to top | Hurriganes Tabs for It Ain't What You Do. Lyrics for acoustic guitar and electric guitar. Tablatures and chords are parodies/interpretations of the original songs. You may use it for private study, scholarship, research or language learning purposes only