» » »

Hot Hot Heat, Get In Or Get Out Bass tabs (ver.1)

Artists:  A B C D E F G H I J K L M N O P Q R S T U V W X Y Z # 

Get In Or Get Out Bass tabs (ver.1)

Hot Hot Heat Tabs
 Rating:
4.2/5 (5 votes)
Get In Or Get Out lessons Tabs too difficult? Try these video lessons and learn fast
                Submission by Paulie Jay

Bass tab - standard tuning.


INTRO: silent until bass comes in at

G-------
D-------
A--3---- let ring through
E-------

VERSE 1

G-----------------|-5---5------------|----------------|--------------|
D---------5---5---|---------5---5--0-|-5---5--0-5---5-|---------2--2-|
A-7-5-7-----7---7-|------------------|----------------|-3---3--------|
E-----------------|------------------|----------------|--------------|

G-----------------|------------------|-5---5-----------|---------------|
D-0---0-----------|----------5---5---|---------5---5-0-|-5---5--0-5--5-|
A-----------------|--7-5-7-----7---7-|-----------------|---------------|
E---------3---3---|------------------|-----------------|---------------|

G-----------------|-----------------|-----------|--------|
D---------2---2---|-0---0---2---2---|-----------|--------|
A-3---3-----------|-----------------|--3--------|--------|
E-----------------|-----------------|-----------|--------|

CHORUS

"Ugly or pretty..."
G-----------------|-----------------|-----------------|-----------------|
D-----------------|-----------------|-----------------|-----------------|
A-----------------|-----------------|-0---0---0---0-2-|-3---3---5---5-3-|
E-3---3---3---3-2-|-0---0---0---0-3-|-----------------|-----------------|

G-----------------|-----------------|-----------------|---------------|
D-----------------|-----------------|-----------------|---------------|
A-----------------|---------------0-|-3---3---3---3-4-|-5---5---5---5-|
E-3---3---3---3-2-|-0---0---0---0---|-----------------|---------------|

G-------
D-------
A--3---- let ring through
E-------

Keyboard Solo
G---------------|---------------|---------------|---------------|
D-2---2---2---2-|---------------|---------------|---------2---2-|
A---------------|-3---3---------|---------------|-3---3---------|
E---------------|---------3---3-|-3---3---3---3-|---------------|

G---------------|
D-0---0---------|
A---------------|  Play twice
E---------3---3-|


VERSE 2 Exactly the same as verse 1

CHORUS 2 Exactly the same as chorus 1

Then silent for 8 bars.

Then come in, drop the first beat of the bar

G-----------------|-----------------|-----------------|------------------|
D-----------------|-----9-------9---|-----2-------2---|---5-------7------|
A-----5-------5---|---7---7---7---9-|---0---0---0---0-|-3---3---5---5----|
E---3---3---3---3-|-----------------|-----------------|------------------|

G-----------------|-----------------|-----------------|----4--5--7--5--4-|
D-----------------|-----9-------9---|-----2-------2---|--5---------------|
A-----5-------5---|---7---7---7---9-|---0---0---0---0-|------------------|
E---3---3---3---3-|-----------------|-----------------|------------------|

NOW PLAY STRAIGHT   "Ugly or pretty..."
G-----------------|-----------------|-----------------|-----------------|
D-----------------|-----------------|-----------------|-----------------|
A-----------------|-----------------|-0---0---0---0-2-|-3---3---5---5-3-|
E-3---3---3---3-2-|-0---0---0---0-3-|-----------------|-----------------|

G-----------------|-----------------|-----------------|---------------|
D-----------------|-----------------|-----------------|---------------|
A-----------------|---------------0-|-3---3---3---3-4-|-5---5---5---5-|
E-3---3---3---3-2-|-0---0---0---0---|-----------------|---------------|

G------- 
D-------
A--3---- let ring through  
E-------

G------- 
D-------
A-------  
E--3----


Performance tips.

Most of this song should be played with a strong "pulse" feel. Try using 
passive bass through a tube amp with lots of thick bottom end.
            
Submit corrections

comments powered by Disqus
↑ Back to top | Hot Hot Heat Bass for Get In Or Get Out. Lyrics for acoustic guitar and electric guitar. Tablatures and chords are parodies/interpretations of the original songs. You may use it for private study, scholarship, research or language learning purposes only