>
 >
Goodnight, Goodnight

Goodnight, Goodnight Guitar Tabs

Hot Hot Heat - Goodnight, Goodnight chords, tabs, tablatures, lyrics

Guitar lessons | Add/correct | Request | Top 50 tabs Artists:  A B C D E F G H I J K L M N O P Q R S T U V W X Y Z 0-9

Goodnight, Goodnight Guitar Tabs – Hot Hot Heat

CD, Sheet music, Poster

Do you like Goodnight, Goodnight? Share with your friends now
Bass TabsBass Tabs v2ChordsChords v2Chords v3TabsTabs v2
Band: Hot Hot Heat
Tune: Standard (eBGDAE)


Intro (0.00):

   Guitar 1
e|--1--1-1---1---1---1--|
B|--3--3-3---3---3---3--|
G|--3--3-3---3---3---3--|   play
D|--3--3-3---3---3---3--|   x2
A|----------------------|
E|----------------------|


Verse (0.06):

   Guitar 1
e|--3--3-3---1---1---1---1--1-1---3---3---3--|
B|--4--4-4---1---1---1---3--3-3---3---3---3--|
G|--5--5-5---2---2---2---3--3-3---3---3---3--|   play
D|--5--5-5---3---3---3---3--3-3---5---5---5--|   x3
A|--3--3-3---3---3---3---1--1-1---5---5---5--|
E|-----------1---1---1------------3---3---3--|

e|--3--3-3---1---1---1---1--1-1---1---1---1--|
B|--4--4-4---1---1---1---3--3-3---3---3---3--|
G|--5--5-5---2---2---2---3--3-3---3---3---3--|   play
D|--5--5-5---3---3---3---3--3-3---3---3---3--|   x1
A|--3--3-3---3---3---3---1--1-1---1---1---1--|
E|-----------1---1---1-----------------------|


Chorus (0.28)

   Guitar 1
e|--2-2-2-2--3-3-3-3--0-0-0-0--0-0-0-0--|
B|--3-3-3-3--3-3-3-3--0-0-0-0--2-2-2-2--|
G|--2-2-2-2--0-0-0-0--0-0-0-0--2-2-2-2--|
D|--0-0-0-0--0-0-0-0--2-2-2-2--2-2-2-2--|
A|-----------2-2-2-2--2-2-2-2--0-0-0-0--|
E|-----------3-3-3-3--0-0-0-0-----------|
 |
 | Guitar 2
e|--------------------------------------|
B|--------------------------------------|
G|--7-7-7-7-----------9-9-9-9-----------|
D|--7-7-7-7--5-5-5-5--9-9-9-9--7-7-7-7--|
A|--5-5-5-5--5-5-5-5--7-7-7-7--7-7-7-7--|
E|-----------3-3-3-3-----------5-5-5-5--|


End Chorus (0.40)

   Guitar 1       Guitar 2
e|--3----------|-------------|
B|--3----------|-------------|
G|--0----------|-------------|
D|--0----------|--5----------|
A|--2----------|--5----------|
E|--3----------|--3----------|


Play Verse (0.43)

Play Chorus (1.05)


Bridge (1.17)

   Guitar 2
e|-----------------------------------------------------------------------|
B|-----------------------------------------------------------------------|
G|------------------9-9-9-9-9-9-9-9-----------------7-7-7-7/11-11-11-11--|
D|--9-9-9-9-9-9-9-9-9-9-9-9-9-9-9-9-7-7-7-7-7-7-7-7-7-7-7-7/11-11-11-11--|
A|--9-9-9-9-9-9-9-9-7-7-7-7-7-7-7-7-7-7-7-7-7-7-7-7-5-5-5-5/9--9--9--9---|
E|--7-7-7-7-7-7-7-7-----------------5-5-5-5-5-5-5-5----------------------|

e|-------------------------------------------------------------------|
B|-------------------------------------------------------------------|
G|------------------9-9-9-9-9-9-9-9----------------------------------|
D|--9-9-9-9-9-9-9-9-9-9-9-9-9-9-9-9-7-7-7-7-7-7-7-7-7-7-7-7-7-7-7-7--|
A|--9-9-9-9-9-9-9-9-7-7-7-7-7-7-7-7-7-7-7-7-7-7-7-7-7-7-7-7-7-7-7-7--|
E|--7-7-7-7-7-7-7-7-----------------5-5-5-5-5-5-5-5-5-5-5-5-5-5-5-5--|


Solo (1.28)

Guitar 2 just play the Bridge over again

   Guitar 1
e|----------------------------------------------------|
B|--7---7---8---10---5---5---5---5---5---5---5---5----|
G|----7---7---7----7---7---7---7---7---6---6---6---6--|
D|----------------------------------------------------|
A|----------------------------------------------------|
E|----------------------------------------------------|

e|--5---5---3---3---/-7---7---7---7-----------------------------|
B|----3---3---3---3-/---7---7---7---7--10----10----10----10-----|
G|----------------------------------------12----12----12----12--|
D|--------------------------------------------------------------|
A|--------------------------------------------------------------|
E|--------------------------------------------------------------|

e|-------------------------------|
B|--10-8-8-8-7h10----------------|
G|----------------9\7----7-------|
D|---------------------9---9--7--|
A|-------------------------------|
E|-------------------------------|


Repeat Chorus (1.40)  x4

End Note (2.03)

e|-----|
B|-----|
G|-----|
D|--5--|
A|--5--|
E|--3--|





Comments


Popular Hot Hot Heat tabs & chords
Bandages 2 Bass Tabs
Goodnight, Goodnight 1 Bass Tabs
Naked In The City Again 1 Bass Tabs
Goodnight, Goodnight 2 Chords
Jingle Jangle Chords
Middle Of Nowhere 2 Tabs
Zero Results Tabs
Goddess On The Prairie Ukulele
Happiness Ltd Ukulele
Save Us Sos Ukulele


Song lyrics



↑ Back to top | Tablatures and chords are parodies/interpretations of the original songs. You may use it for private study, scholarship, research or language learning purposes only
© 2014 AZChords.com Contact us | Privacy policy | DMCA | Add/correct tabs | Request tabs | Top 50 tabs