» » »

Hot Hot Heat, When It All Comes Down Tabs (ver.1)

Artists:  A B C D E F G H I J K L M N O P Q R S T U V W X Y Z # 

When It All Comes Down Tabs (ver.1)

Hot Hot Heat Tabs
 Rating:
4.2/5 (5 votes)
When It All Comes Down lessons Tabs too difficult? Try these video lessons and learn fast
                ----------------------------------------------------------------------------
                         

Tuning: Standard

Intro

e|-8h10p80-11-11---0-6h7p60-11-0-9---9-8-5-7--6-5---7-6-5-4----------------|
B|-------------------------------------------------------------------------|
G|-------------------------------------------------------------------------|
D|-------------------------------------------------------------------------|
A|-------------------------------------------------------------------------|
E|-------------------------------------------------------------------------|

then

e|-7-6-5-8--6-5--8-6-5-9--7-6--9-7-5-7-5-----------------------------------|
B|-------------------------------------------------------------------------|
G|-------------------------------------------------------------------------|
D|-------------------------------------------------------------------------|
A|-------------------------------------------------------------------------|
E|-------------------------------------------------------------------------|

Riff

e|-------------------------------------------------------------------------|
B|-------------------------------------------------------------------------|
G|-7-5--7-5--7-5-7-8-7h665-------------------------------------------------|
D|-------------------------------------------------------------------------|
A|-------------------------------------------------------------------------|
E|-------------------------------------------------------------------------|

Verse

e|-------------------------------------------------------------------------|
B|-------------------------------------------------------------------------|
G|-7-7--7-7--7-7--7-7--8-8--8-8--8-8--8-8----------------------------------|
D|-------------------------------------------------------------------------|
A|-------------------------------------------------------------------------|
E|-------------------------------------------------------------------------|

then

e|-------------------------------------------------------------------------|
B|-------------------------------------------------------------------------|
G|-7-7--7-7--7-7--7-7--6-6--6-6--6-6--6-6--6-5--5-5--5-5--5-5--------------|
D|-------------------------------------------------------------------------|
A|-------------------------------------------------------------------------|
E|-------------------------------------------------------------------------|

Chorus

e|-------------------------------------------------------------------------|
B|-------------------------------------------------------------------------|
G|-10-(8x)---9-(8x)---12-(8x)---8-(4x)---7-(4x)----------------------------|
D|-------------------------------------------------------------------------|
A|-------------------------------------------------------------------------|
E|-------------------------------------------------------------------------|

Chorus 2 (With Bridge Before Solo)

e|-------------------------------------------------------------------------|
B|-------------------------------------------------------------------------|
G|-10-(8x)---9-(8x)---12-(32x)---------------------------------------------|
D|-------------------------------------------------------------------------|
A|-------------------------------------------------------------------------|
E|-------------------------------------------------------------------------|

Solo

e|-------------------------------------------------------------------------|
B|-------------------------------------------------------------------------|
G|-7-8-10-12-7-12--------7-8-10-12-7-15-17---------------------------------|
D|----------------10--10---------------------------------------------------|
A|-------------------------------------------------------------------------|
E|-------------------------------------------------------------------------|

Intro x1
Riff x4
Verse x1
Riff x1
Verse x1
Chorus x2
Verse x1
Chorus x3
Chorus 2 x1
Solo x1
Verse x1
Chorus x4

 /  slide up
 \  slide down
 h  hammer-on
 p  pull-off
 ~  vibrato
 +  harmonic
 x  Mute note
============================================================================
            
Submit corrections

comments powered by Disqus
↑ Back to top | Hot Hot Heat Tabs for When It All Comes Down. Lyrics for acoustic guitar and electric guitar. Tablatures and chords are parodies/interpretations of the original songs. You may use it for private study, scholarship, research or language learning purposes only