» » »

Hot Hot Heat, Get In Or Get Out Bass tabs (ver.2)

Artists:  A B C D E F G H I J K L M N O P Q R S T U V W X Y Z # 

Get In Or Get Out Bass tabs (ver.2)

Hot Hot Heat Tabs
 Rating:
4/5 (4 votes)
Get In Or Get Out lessons Tabs too difficult? Try these video lessons and learn fast
                This is my very first tab so some of it may be wrong I couldnt hear some of it. 
Keshia :)
 
   Hot Hot Heat

Verse One  (0:20)
G||--------------------------------------------------------|
D||------5-------------------------------------------------|
A||--757---757--33----3---3---33-77-55---------------------|
E||----------------33--33--33----------33------------------|

G||--------------------------------------------------------|
D||------5-------------------------------------------------|
A||--757---757--33----3---3---33-77-55-77-33333333---------|
E||----------------33--33--33------------------------------|

Chorus
G||----------------------5577-|
D||---55554-22225--7777-------|
A||---------------------------|
E||---------------------------|

G||------------------------------|
D||---55554-2222--4555--4577775--|
A||------------------------------|
E||------------------------------|

G||-------------------------------|(X2)
D||-------------------------------|
A||--7777-33-------33-77-55-------|
E||---------333333----------3333--|

Verse 2
G||--------------------------------------------------------|
D||------5-------------------------------------------------|
A||--757---757--33----3---3---33-77-55---------------------|
E||----------------33--33--33----------33------------------|

G||--------------------------------------------------------|
D||------5-------------------------------------------------|
A||--757---757--33----3---3---33-77-55-77-33333333---------|
E||----------------33--33--33------------------------------|

Chorus
G||----------------------5577-|
D||---55554-22225--7777-------|
A||---------------------------|
E||---------------------------|

G||------------------------------|
D||---55554-2222--45555--457775--|
A||------------------------------|
E||------------------------------|

 ~~~~~~~~BREAK~~~~~~~~~~~~

G||-----------------------------------------|
D||-----------------------------------------|
A||---5----5-----2----2-------------3----5--|
E||--3-3--3-3---3-3--3-3---353-353-3-3--3-3-|

G||-----------------------------------------|
D||-----------------------------------------|
A||---5----5-----2----2------------2235532--|
E||--3-3--3-3---3-3--3-3---353-353----------|

~~~~~~Ending~~~~~~~~

G||-----------------------------------------|(X2)
D||-----------------------------------------|
A||-------2222-33335555---------------------|
E||--33332----3-----------------------------|

G||------------------|
D||------------------|
A||------------------|
E||--3---------3-----|
            
Submit corrections

comments powered by Disqus
↑ Back to top | Hot Hot Heat Bass for Get In Or Get Out. Lyrics for acoustic guitar and electric guitar. Tablatures and chords are parodies/interpretations of the original songs. You may use it for private study, scholarship, research or language learning purposes only