>
 >
Get In Or Get Out

Get In Or Get Out Guitar Tabs

Hot Hot Heat - Get In Or Get Out chords, tabs, tablatures, lyrics

Guitar lessons | Add/correct | Request | Top 50 tabs Artists:  A B C D E F G H I J K L M N O P Q R S T U V W X Y Z 0-9

Get In Or Get Out Guitar Tabs – Hot Hot Heat

CD, Sheet music, Poster

Do you like Get In Or Get Out? Share with your friends now
Bass TabsBass Tabs v2ChordsTabs


Intro                                                          1+ 2+ 3+ 4 +
e--------------\--------------\--------------\--------------\-------------0\
b--------------\--------------\--------------\--------------\-------------0\
g--------------\--------------\--------------\--------------\-------------0\
d--9--9--9--9--\--5--5--------\--------------\--5--5--9--9--\--7--7--------\
a--7--7--7--7--\--3--3--5--5--\--5--5--5--5--\--3--3--7--7--\--5--5--5--5--\
E--------------\--------3--3--\--3--3--3--3--\--------------\--------3--3--\


e--------------\--------------\--------------\--------------\--------------\
b--------------\--------------\--------------\--------------\--------------\
g--------------\--------------\--------------\--------------\--------------\
d--9--9--9--9--\--5--5--------\--------------\--5--5--9--9--\--7--7--9--9-9\
a--7--7--7--7--\--3--3--5--5--\--5--5--5--5--\--3--3--7--7--\--5--5--7--7-7\
E--------------\--------3--3--\--3--3--3--3--\--------------\--------------\

distortion
                  :Intro   Verse:
e--3--3---3----\--------------\-12-12-12-12--\--8--8--3--3--\--3--3--3--3--\
b--3---3---3---\--------------\-12-12-12-12--\--8--8--3--3--\--3--3--3--3--\
g--5----5---5--\-----ad-lib --\-12-12-12-12--\--9--9--4--4--\--4--4--4--4--\
d--5-5---------\--------------\--------------\--------------\--------------\
a--------------\--------------\--------------\--------------\--------------\
E--------------\--------------\--------------\--------------\--------------\



                 1 +2 +3+ 4+
e--8--8--12-12-\-10-10--3--3--\-12-12-12-12--\--8--8--3--3--\--3--3--3--3--\
b--8--9--12-12-\-10-10--------\-12-12-12-12--\--8--8--3--3--\--3--3--3--3--\
g--9--9--12-12-\-11-11--------\-12-12-12-12--\--9--9--4--4--\--4--4--4--4--\
d--------------\-------5--5---\--------------\--------------\--------------\
a--------------\--------------\--------------\--------------\--------------\
E--------------\--------------\--------------\--------------\--------------\


                                                     :Verse  Chorus:
e--8--8-12-12--\-10--10-12-12-\--3-----------\--------------\-3--3--3--3---\
b--8--8-12-12--\-10--10-12-12-\--3-----------\--------------\-3--3--3--3---\
g--9--9-12-12--\-11--11-12-12-\--5-----------\--------------\-4--4--4--4---\
d--------------\--------------\--5-----------\--------------\-5--5--5--5---\
a--------------\--------------\--------------\--------------\-5--5--5--5---\
E--------------\--------------\--------------\--------------\-3--3--3--3---\

                                                                     :Chorus
e-12-12-12-12--\--8--8--8--8--\-10-10--8--8--\-3--3--3--3---\-12-12-12-12--\
b-12-12-12-12--\--8--8--8--8--\-10-10--8--8--\-3--3--3--3---\-12-12-12-12--\
g-12-12-12-12--\--9--9--9--9--\-11-11--9--9--\-4--4--4--4---\-12-12-12-12--\
d-14-14-14-14--\-10-10-10-10--\-12-12-10-10--\-5--5--5--5---\-14-14-14-14--\
a-14-14-14-14--\-10-10-10-10--\-12-12-10-10--\-5--5--5--5---\-14-14-14-14--\
E-12-12-12-12--\--8--8--8--8--\-10-10--8--8--\-3--3--3--3---\-12-12-12-12--\


e--8--8--8--8--\-10-10-10-10--\-3------------\--------------\
b--8--8--8--8--\-10-10-10-10--\-3------------\--------------\
g--9--9--9--9--\-11-11-11-11--\-5------------\--------------\
d-10-10-10-10--\-12-12-12-12--\-5------------\--------------\
a-10-10-10-10--\-12-12-12-12--\-3------------\--------------\
E--8--8--8--8--\-10-10-10-10--\--------------\--------------\

Guitar: Verse repeat
Accordian solo


e------------8p7\15p14-14p12-12p10--7h8h10---\-7-8-10--8-7--\-5-3-2-0------\
b--12-8-12-8----\----------------------------\--------------\--------------\
g:9--9-9--9-9---\----------------------------\--------------\--------------\
d:--------------\----------------------------\--------------\--------------\
a---------------\----------------------------\--------------\--------------\
E---------------\----------------------------\--------------\--------------\

               Verse 2:
                  ~~~~~
e-/10----------\-7------------\--3----3------\--3-----------\--3----12-----\
b---------8----\-8------------\---0----0-----\---0----------\---0-----12---\
g-------------:\-9------------\--------------\--------------\--------------\
d-------------:\-9------------\-5--5-5--5----\-5---5--------\-5--5-14---14-\
a--------------\-7------------\--------------\--------------\--------------\
E--------------\--------------\--------------\--------------\--------------\




e--10-----3----\--7-----------\--3----3------\--3-----------\--3----12-----\
b----10----0---\---6----------\---0----0-----\---0----------\---0-----12---\
g-11---11------\-9--9---------\--------------\--------------\--------------\
d--------5--5--\--------------\-5--5-5--5----\-5--5---------\-5--5-14---14-\
a--------------\--------------\--------------\--------------\--------------\
E--------------\--------------\--------------\--------------\--------------\



                                       :Verse2  Chorus      Outro Chorus
e-10------12---\-3------------\--------------\--------------\-------10---10\
b---10-----12--\-3------------\--------------\--------------\--------------\
g11---11-12--12\-5------------\--------------\--------------\-----12---12--\
d--------------\-5------------\--------------\--------------\---12---12----\
a--------------\-3------------\--------------\--------------\-10-----10----\
E--------------\--------------\--------------\--------------\--------------\


                G              E             C              D
e----10----10--\------10----10-\--------------\--------------\------------------\
b--------------\---------------\---12----12---\---10----10---\---10-10---10-12--\
g--12----12----\:---12----12---\-12--1212--12-\-12--1212--12-\12-------12------:\
d12----12------\:-12----12-----\--------------\--------------\-----------------:\
a10----10------\--10----10-----\-10----10-----\-10----10-----\------------------\
E--------------\---------------\--------------\--------------\------------------\
|                                                                               |
|		                                                                |
(Organ/second guitar)                                                           | 
e--------------\---------------\--------------\--------------\------------------\
b--------------\:--12-13--12-13\--12-----12---\--10-----10---\10-12-13-15-13-12-\
g--------------\:12-----12-----\12--12-12--12-\12--12-12--12-\-----------------:\
d--------------\:--------------\--------------\--------------\-----------------:\
a--------------\---------------\--------------\--------------\------------------\
E--------------\---------------\--------------\--------------\------------------\


G               E              C               D              
e--10-10-10-10--\-12-12-12-12--\--8--8--8--8--\-10-10-10-10---\-----10---10--\
b--12-12-12-12--\-12-12-12-12--\--8--8--8--8--\-10-10-10-10---\--------------\
g:-12-12-12-12--\-12-12-12-12--\--9--9--9--9--\-11-11-11-11--:\---12---12----\
d:-12-12-12-12--\-14-14-14-14--\-10-10-10-10--\-12-12-12-12--:\-12---12------\
a--10-10-10-10--\-14-14-14-14--\-10-10-10-10--\-12-12-12-12---\-10---10------\  End
E---------------\-12-12-12-12--\--8--8--8--8--\-10-10-10-10---\--------------\





Comments


Popular Hot Hot Heat tabs & chords
Bandages 2 Bass Tabs
Conversation Chords
Dirty Mouth Chords
Goddess On The Prairie Chords
Goodnight, Goodnight 2 Chords
Let Me In Chords
Goodnight, Goodnight Tabs
No Not Now Intro Tabs
Goodnight Goodnight Ukulele
Jingle Jangle Ukulele


Song lyrics



↑ Back to top | Tablatures and chords are parodies/interpretations of the original songs. You may use it for private study, scholarship, research or language learning purposes only
© 2014 AZChords.com Contact us | Privacy policy | DMCA | Add/correct tabs | Request tabs | Top 50 tabs