» » »

Hot Hot Heat, Bandages Bass tabs (ver.3)

Artists:  A B C D E F G H I J K L M N O P Q R S T U V W X Y Z # 

Bandages Bass tabs (ver.3)

Hot Hot Heat Tabs
Rating:
0/5 (0 votes)
Bandages lessons Tabs too difficult? Try these video lessons and learn fast
                G|---------|
D|---------|
A|-----3-0-|
E|-0-3-----| 4x

G|-----4-5-55-5--------------5----5-55-5--------------5-|
D|-5-7---------5-55-57-57-57--5-5-------5-55-57-57-57---|
A|------------------------------------------------------|
E|------------------------------------------------------| 

G|---------|
D|---------|
A|-----3-0-|
E|-0-3-----| 11x 

G|-------------------------------4-|
D|--------------------7-57-57-57---|
A|-----3-0--0--0--030--------------|
E|-0-3-----3--3--3---3-------------|

G|-5-55-5--------------5----5-55-5--------------5-|
D|-------5-55-57-57-57--5-5-------5-55-57-57-57---|
A|------------------------------------------------|
E|------------------------------------------------|

G|-----------------------------------------------|
D|-----------------------------------------------|
A|-----3-0-00-0-00---00-0-00---00-0-00---00-0-00-|
E|-0-3-------------3---------3---------3---------|

G|---------|
D|---------|
A|-----3-0-|
E|-0-3-----| 3x

G|-------------------------------4-|
D|--------------------7-57-57-57---|
A|-----3-0--0--0--030--------------|
E|-0-3-----3--3--3---3-------------|

G|-5-55-5--------------5----5-55-5--------------5----|
D|-------5-55-57-57-57--5-5-------5-55-57-57-57--5-5-|
A|---------------------------------------------------|
E|---------------------------------------------------|

G|-5-55-5----------------5----------------|
D|-------5-55-57-57-57-57-7---------------|
A|--------------------------0--0--0--030--|
E|----------------------------3--3--3---3-|

G|---------------------|
D|-77--------55-5-77-7-|
A|----7-77-7-----------|
E|---------------------| 3x 

G|-----------5---|
D|-7-57-57-57-75-|
A|---------------|
E|---------------| 5x

G|------------4-|
D|-7-57-57-57---|
A|--------------|
E|--------------|

G|-5-55-5--------------5----|
D|-------5-55-57-57-57--5-5-|
A|--------------------------|
E|--------------------------| 3x

G|-10-10-10-10-5555----------|
D|-----------------5555-5555-|
A|---------------------------|
E|---------------------------|

G|------------5---|
D|-57-57-57-57-75-|
A|----------------|
E|----------------|

G|---------------|
D|---------------|
A|-0--0--0--030--|
E|---3--3--3---3-|
            
Submit corrections

comments powered by Disqus
↑ Back to top | Hot Hot Heat Bass for Bandages. Lyrics for acoustic guitar and electric guitar. Tablatures and chords are parodies/interpretations of the original songs. You may use it for private study, scholarship, research or language learning purposes only