» » »

Bandages Tabs (ver.2)

Artists:  A B C D E F G H I J K L M N O P Q R S T U V W X Y Z # 

Bandages Tabs (ver.2)

Hot Hot Heat
Rating:
4/5 (2 votes)

Hard to play? Try these video lessons and learn fast.
                

        This song is hard to pick out the guitar parts in some places.
This is basically all I could pick up when I listened to it repeatedly.
There is a slightly different version (like the video) where it goes 
right to the chorus in the beginning but the version I tabbed starts 
with the first verse. The fill in is so fast in the song and it goes 
right into the next part that I can barely play it. Feel free to email 
me with corrections.






e/----5--(5)--5--5------
B/----------------------  
G/---------------------- INTRO  (4x)
D/----------------------  
A/---------------------- 
E/----------------------


e/---------------------- 
B/----------3-4-3-1-----
G/--------0------------- FILL IN (Very QuicK)
D/----2-2--------------- 
A/---------------------- 
E/----------------------

e/------5---5-5-5--------5---5-5-5-------
B/----0---0-0-0-0----5-5---5-5-5-5-------  
G/--0------------------------------------ PRE-VERSE (2x)(Right before singing)
D/---------------------------------------  
A/---------------------------------------
E/---------------------------------------


e/---------------------- 
B/--5----3-------------- 
G/------------5----4---- VERSE 1 PART A (4x)
D/----------------------   (These bandages...)
A/---------------------- 
E/----------------------


e/------------------------- 
B/--5----3-5-----5-----5-5- 
G/------------5-----4---4-- VERSE 1 PART B (1x)
D/-------------------------  (I've been hoping your moping...)
A/------------------------- 
E/-------------------------


e/----3-----3-----3-------3-----3-----3------- 
B/------1-----1-----1-------0-----0-----0----- 
G/--0-----0-----0-----0-0-----0-----0-----0--- VERSE 1 PART C (1x)
D/--------------------------------------------  (I've been tripping...)
A/-------------------------------------------- 
E/--------------------------------------------

REPEAT VERSE 1 PART A (1x)
REPEAT VERSE 1 PART B (1x)
REPEAT VERSE 1 PART C (1x)

e/-------------5----------
B/------------------------  
G/------------------------ PRE-CHORUS (after this go quickly to fill-in)
D/------------------------  
A/--7-77-77-77---77-77-77-
E/------------------------




 REPEAT FILL IN (Very Quick)
   (After they sing "(a)round" 7 times but before they sing "Bandages..."


e/--555-555-555-55-555-555-55555----
B/--666-555-000-55-555-555-55555----  
G/----------777-66-766-766-76766----   CHORUS (2x)
D/--------------77-777-777-77777----  
A/-----------------------------0----
E/----------------------------------



e/--------------15-- 
B/------------------
G/--14-------------- VERSE 2 PART A (4x)
D/--------14--------     (I've been hoping your moaning...)
A/------------------
E/------------------

REPEAT VERSE 1 PART B (1x)
REPEAT VERSE 1 PART C (1x)
REPEAT PRECHORUS (1x)
REPEAT FILL IN (1x)
REPEAT CHORUS (3x)

e/--555-555-55555---
B/--555-555-55555---
G/--766-766-76766--- CHORUS EXTRA
D/--777-777-77777---
A/--------------0---
E/------------------

e/----5-3----3-3---77--99-----
B/------0----0-0---xx--xx----- 
G/---5--4--4-4-4--777-999----- VERSE 3 (5x)
D/----------------------------   (Don't worry now...)
A/---------------------------- 
E/----------------------------

e/--99-9---
B/--xx-x--- 
G/--99-9--- PRECHORUS (3x)
D/---------   (Around, around, around!)
A/---------
E/---------

REPEAT FILL IN (1x)
REPEAT CHORUS (4x)
REPEAT CHORUS EXTRA (2x)


e/--555-55------5-
B/--555-55------5-
G/--766-7676-76-6- END
D/--777-76--7--77-
A/--------------0-
E/--------------5-
            
Hard to play? Try these video lessons and learn fast. | Correct




comments powered by Disqus
↑ Back to top | Tablatures and chords are parodies/interpretations of the original songs. You may use it for private study, scholarship, research or language learning purposes only