>
 >
Bandages 1

Bandages 1 Guitar Tabs

Hot Hot Heat - Bandages 1 chords, tabs, tablatures, lyrics

Guitar lessons | Add/correct | Request | Top 50 tabs Artists:  A B C D E F G H I J K L M N O P Q R S T U V W X Y Z 0-9

Bandages 1 Guitar Tabs – Hot Hot Heat

CD, Sheet music, Poster

Do you like Bandages 1? Share with your friends now
Bass TabsBass Tabs v2Bass Tabs v3TabsTabs v2Tabs v3Tabs v4

intro

e-5-5-5-5-----------------
b-5-2-2-5-------5-7b-7-5--
g-2-2-2-2-x4-------------7
d-------------------------
a-------------------------
e-------------------------

Chrous without signing

e--3-3----3-3-----5-5-5---
b--5-5----3-3-----5-5-5---
g--5-5----4-4-----5-5-5---
d--5-5----5-5-------------
a--3-3----5-5-------------
e--3-3----3-3-------------

"these bandages, cover more than scrapes"

e-------------------------
b-------------------------
g-9-7-5-4-4h5p4-0-2-------
d------------------------- x4
a-------------------------
e-------------------------

"I've been hoping your moping around the street again"

e-3---3-----3------3------
b-------1-----1------1----
g---0-----0-----0------0--
d-------------------------
a-------------------------
e-------------------------

"I've been tripping from sipping the dripping dirty water tap"

e-3---3-----3-----3------
b-------0-----0-----0----
g---0-----0-----0-----0--
d------------------------
a------------------------
e------------------------

"I've been poking a voodoo doll that you do not know I made"

e-3---3-----3------3------
b-------1-----1------1----
g---0-----0-----0------0--
d-------------------------
a-------------------------
e-------------------------

"These  bandages  are        
e-------------------------
b-------------------------
g-9-7-5-4-4h5p4-0-2-------
d------------------------- 
a-------------------------
e-------------------------


"anonymity. I've been shaking from making an awful decision."

e-------3-----3----3------3-----3-------3----
b---------------------1-------1----0------1--
g-9-7-5---4-0---0-------0---0--------0------0
d--------------------------------------------
a--------------------------------------------
e--------------------------------------------

"I've been running and running..."

e-3-------3------------
b----0-------0---------
g-------0-------0------
d----------------------
a----------------------
e----------------------

"feels like my head is spinning round and round" and  Round...

e----3-----------------------------5------5--------------------
b-------0--------------------------5------5--------------------
g-----------0----------------------5------5----------5-7b-7-5--
d------------------------------------------------------------7-
a--------------------------------------------------------------
e--------------------------------------------------------------

chorus

e--3-3----3-3-----5-5-5---
b--5-5----3-3-----5-5-5---
g--5-5----4-4-----5-5-5---
d--5-5----5-5-------------
a--3-3----5-5-------------
e--3-3----3-3-------------


"I've been hoping your moping around the street again."

e-------15-----------------15--
b------------------------------
g------------------------------ Let it ring x3
d------------------------------
a------------------------------
e------------------------------


I've been shaking from making an awful decision."

e-------3-----3----3------3-----3-------3----
b---------------------1-------1----0------1--
g-9-7-5---4-0---0-------0---0--------0------0
d--------------------------------------------
a--------------------------------------------
e--------------------------------------------

"been thinking I'm drinking too many drinks all by myself"

e-3-------3--------3---------3--------
b----1-------1--------0---------0-----
g-------0-------0--------0---------0--
d-------------------------------------
a-------------------------------------
e-------------------------------------

I've been running and running...feels like my head is spinning round and round

e--3---------3----------------------5------5--------------------
b------1---------1------------------5------5--------------------
g---------0----------0--------------5------5----------5-7b-7-5--
d--------------------------------------------------------------7
a---------------------------------------------------------------
e---------------------------------------------------------------

chorus

e--3-3----3-3-----5-5-5---
b--5-5----3-3-----5-5-5---
g--5-5----4-4-----5-5-5---
d--5-5----5-5-------------
a--3-3----5-5-------------
e--3-3----3-3-------------

"Don't worry now, Don't worry now,  don't worry cuz it's all under control"

e--5---5------------3---3--------------3---3-----------------------------
b--5---5------------5---5--------------3---3-----------------------------
g--6---6------------4---4--------------4---4------------------12--12--14-
d--7---7------------5---5--------------5---5------------------12--12--14- x4
a--7---7------------3---3--------------3---3------------------10--10--12-
e--5---5------------3---3--------------3---3-----------------------------

"Don't worry cuz it will all turn around, around,around,around,around,around,around,around..."
e--5---5---------3---3---------3---3---------------------------------------------
b--5---5---------5---5---------3---3---------------------------------------------
g--6---6---------4---4---------4---4-------12--12--14-14-14-14-14----5-7b-7-5----
d--7---7---------5---5---------5---5-------12--12--14-14-14-14-14-------------7--
a--7---7---------3---3---------3---3-------10--10--12-12-12-12-12----------------
e--5---5---------3---3---------3---3---------------------------------------------


chorus

e--3-3----3-3-----5-5-5---
b--5-5----3-3-----5-5-5---
g--5-5----4-4-----5-5-5---
d--5-5----5-5-------------
a--3-3----5-5-------------
e--3-3----3-3-------------

Outro
e--5--5--5------- then no guitar just drums
b--5--5--5-------
g--5--5--5-------
d----------------
a----------------
e----------------


Note: If anyone steals this and puts there name on it i will come over
to your house and beat you down





Comments


Popular Hot Hot Heat tabs & chords
Le Le Low Bass Tabs
Talk To Me Dance With Me Bass Tabs
Give Up Chords
Goddess On The Prairie Chords
Goodnight, Goodnight 1 Chords
Middle Of Nowhere Tabs
Goddess On The Prairie Ukulele
Jingle Jangle Ukulele
Outta Heart Ukulele
Save Us Sos Ukulele


Song lyrics



↑ Back to top | Tablatures and chords are parodies/interpretations of the original songs. You may use it for private study, scholarship, research or language learning purposes only
© 2014 AZChords.com Contact us | Privacy policy | DMCA | Add/correct tabs | Request tabs | Top 50 tabs