>
 >
California 1

California 1 Guitar Tabs

Hawk Nelson - California 1 chords, tabs, tablatures, lyrics

Guitar lessons | Add/correct | Request | Top 50 tabs Artists:  A B C D E F G H I J K L M N O P Q R S T U V W X Y Z 0-9

California 1 Guitar Tabs – Hawk Nelson

CD, Sheet music, Poster

Do you like California 1? Share with your friends now
Bass TabsChordsTabsTabs v2Tabs v3Tabs v4Tabs v5Ukulele
-------------------------------------------------------------------------------
                             California - Hawk Nelson
-------------------------------------------------------------------------------

Tuning:  standard  e B G D A E

this is a really cool song, and pretty easy too, enjoy!!


         Intro
e|-------------------------------------------------------------------|
B|-------------------------------------------------------------------|
G|-----4-2-------4-5-4-2-4------4-2-------4-5-4-2-4------------------|
D|-5-5-----5-5-5------------5-5-----5-5-5-----------5-let ring-------|
A|-------------------------------------------------------------------|
E|-------------------------------------------------------------------|

         Verse  x2
e--------------------------------------------------------------------|
b--------------------------------------------------------------------|
g--------------------------------------------------------------------|
d-----4-------4------7-----4---------4-------4------9----11----------|  
a---4---4---4------9-----6---------4---4---4------9----11------------|
E--2------2------9-----6---------2-------2------7-----9--------------|
  
   "im not falling for anymore of these tricks..."
  
         

          Pre-Chorus x2
e|---------------------------------------------------------------------------|
B|---------------------------------------------------------------------------|
G|-----------------5-5-5-5--------------------------5-5-5-5-7-7-7-7----------|
D|-5-5-5-5-5-5-5-5-5-5-5-5-7-7-7-7--5-5-5-5-5-5-5-5-5-5-5-5-7-7-7-7----------|       
A|-5-5-5-5-5-5-5-5-3-3-3-3-7-7-7-7--5-5-5-5-5-5-5-5-3-3-3-3-5-5-5-5----------|
E|-3-3-3-3-3-3-3-3---------5-5-5-5--3-3-3-3-3-3-3-3--------------------------|

    " my bags are packed as im looking out the window..."

  

          The little part right before the chorus
e|-----------------------------------------------------------|
B|-----------------------------------------------------------|
G|-----------------------------------------------------------|
D|--5-5-5-5---keep going until chorus  louder as you go------|
A|--5-5-5-5--------------------------------------------------|
E|--3-3-3-3--------------------------------------------------|

   "oohhhhhhhhhhh..."


          Chorus
e|------------------------------------------------------------------------|
B|------------------------------------------------------------------------|
G|-------------------------------5-5-5-5---7-7-7-7---7-7-7-7--------------|
D|-5-5-5-5---5-5-5-5---5-5-5-5---5-5-5-5---7-7-7-7---7-7-7-7--------------|
A|-5-5-5-5---5-5-5-5---5-5-5-5---3-3-3-3---5-5-5-5---5-5-5-5--------------|
E|-3-3-3-3---3-3-3-3---3-3-3-3--------------------------------------------|

     "lets pack up and move to california..."
     "never get bored cause we can go boardin..."



       Riff after chorus (same as intro)
e|-------------------------------------------------------------------|
B|-------------------------------------------------------------------|
G|-----4-2-------4-5-4-2-4------4-2-------4-5-4-2-4------------------|
D|-5-5-----5-5-5------------5-5-----5-5-5-----------5-let ring-------|
A|-------------------------------------------------------------------|
E|-------------------------------------------------------------------|


   Verse again
   Prechorus again (with little "ohhhhh" thing)
   chorus again
   
     solo
e-----------------------------------------------------------|
b-----------------------------------------8-8-8-3-----------|
g--7-7-7-7-4-----4-5-4---7-7-7-4-4-5-4------------2-2-4-5-4-|
d------------7-7------------------------7~------------------|
a-----------------------------------------------------------|
E-----------------------------------------------------------|


   then chorus x2


    comments/corrections welcome


   





Comments


Popular Hawk Nelson tabs & chords
36 Days 1 Chords
Everything You Ever Wanted Chords
Everything You Ever Wanted 1 Chords
Live Life Loud 1 Chords
One Little Miracle Chords
Take Me 2 Chords
Lets Dance 3 Tabs
Someone Else Before 1 Tabs
Alive Ukulele
Is Forever Enough Ukulele


Song lyrics



↑ Back to top | Tablatures and chords are parodies/interpretations of the original songs. You may use it for private study, scholarship, research or language learning purposes only
© 2014 AZChords.com Contact us | Privacy policy | DMCA | Add/correct tabs | Request tabs | Top 50 tabs