» » »

Hawk Nelson, California Bass tabs (ver.1)

Artists:  A B C D E F G H I J K L M N O P Q R S T U V W X Y Z # 

California Bass tabs (ver.1)

Hawk Nelson Tabs
 Rating:
4.3/5 (6 votes)
California lessons Tabs too difficult? Try these video lessons and learn fast
1
                this song was not hard to figure out...it's pretty easy so i hope you enjoy it!!
Tuning:STANDARD

Intro
G|----------------------------------|
D|----------------------------------|
A|-----------------22-1----22-221-1-|
E|-2~------------------4-2-------4--|

Verse
G|------------------------------------------------------------------|
D|------------------------------------------------------------------|
A|---------2~--1~----------2~--4~----------2~--1~----------2~-44444-|
E|-2~--------------2~--------------2~--------------2~---------------|

Pre-Chorus
G|------------------------------------------------------------------|
D|------------------------------34644444444---------------------346-|
A|---------2221111---------22244-----------2221111---------22244----|
E|-22222222-------422222222-----------------------422222222---------|

G|----------------------------------|
D|-4~-------------------------------|
A|----------------------------------|
E|-----------------2222222222222222-|

Chorus
G|---------------------------------------13--113--------------------|
D|---------------------------------11111---11---113-----------------|
A|-----------------22222-444-444444----------------22-22-2-44-44-4--|
E|-22222-222-222222-------------------------------------------------|

Post-Chorus
G|----------------------------------|
D|----------------------------------|
A|----1-------121-122-1----22-221-1-|
E|-22--4-2-22----4-----4-2-------4--|

Verse

Pre-Chorus 2
G|-------------------------44466664---------------------------------|
D|-4444444/999988844444444--------4444444/999988844444444---------|
A|---------------------------------------------------------22244444-|
E|------------------------------------------------------------------|

Chorus

Guitar Solo
G|------------------------------------------------------------------|
D|------------------------------34644444444-------------------------|
A|---------2221111---------22244-----------2221111------------------|
E|-22222222-------422222222-----------------------422-22-22---22----|

G|----------------------------------|
D|----------------------------------|
A|----------------------------------|
E|----------------------------------|

Chorus 2
G|------------------------------------------------------------------|
D|--------------------------------------------------4444/86/8------|
A|------------------------------444---------------------------------|
E|-------------------------------------------------------------4-4--|

G|---------------------------------------13--113--------------------|
D|---------------------------------111111--11---113-----------------|
A|-----------------2222222244444444----------------22-22-2-44-44-4--|
E|-2222222222222222-------------------------------------------------|

Outro
G|-----------------------------------------------------------------------|
D|------------------------------34644444444------------------------------|
A|---------2221111---------22244-----------2221111---------1--4~---------|
E|-22222222-------422222222-----------------------4--2--4-------------2~-|
            
Submit corrections

comments powered by Disqus
↑ Back to top | Hawk Nelson Bass for California. Lyrics for acoustic guitar and electric guitar. 1 Tablatures and chords are parodies/interpretations of the original songs. You may use it for private study, scholarship, research or language learning purposes only