» » »

Hawk Nelson, California Tabs (ver.1)

Artists:  A B C D E F G H I J K L M N O P Q R S T U V W X Y Z # 

California Tabs (ver.1)

Hawk Nelson Tabs
 Rating:
4.2/5 (5 votes)
California lessons Tabs too difficult? Try these video lessons and learn fast
                Band: Hawk Nelson

*******THE TUNING IS IN DROP D FLAT!!! (Db, Ab, Db, Gb, Bb, Eb)*******

I'm only saying that because I know there's gonna be some noobie at guitar who gives 
a one star rating cause he played it in standard tuning!


Key:
* = palm-mute
/ or \ = slide up or down
\\\\\\ or ////// = move finger down or up the string nice and easy (usually while tremolo picking)


CALIFORNIA

Intro:
|------------------------------------------------------------|
|------------------------------------------------------------|
|------------------------------------------------------------|
|-5-5-/9-7-5--5-5-9-10-9-------9-7-5-------9-10-9\7/9-5------|
|------------------------------------------------------------|
|------------------------10-10-------10-10-------------------|

Verse 1:
|-------------------------------------------------------|
|-------------------------------------------------------|
|-------7---------5-------4--------7--------5-------7---|
|-----5----5----5---5---5--------5----7---5---5---7-----|  x2
|---5---------3-------2--------5--------3-------5-------|
|-5--------------------------5--------------------------|

|------------------------------------------------------------------|
|------------------------------------------------------------------|
|------------------------------------------------------------------|
|-----------------5-5-5---5-5-5-------------------5-5-5-5-7-7-7-7--| x2
|-5-5-5-5-5-5-5-0-3-3-3-0-2-2-2-0-5-5-5-5-5-5-5-0-3-3-3-3-5-5-5-5--|
|-5-5-5-5-5-5-5-0-----------------5-5-5-5-5-5-5-0------------------|
PM* * * * * * * * * * * * * * * * * * * * * * * * * * * * *

Pre-Chorus:
|-------------------------------------------------|
|-------------------------------------------------|
|---------------------------------------7-7-7-7-7-|
|-5-------------------------------5-5-5-5-5-5-5-5-|
|-5---------------5-5-5-5-5-5-5-5-5-5-5-5-5-5-5-5-|
|-5---------------5-5-5-5-5-5-5-5-5-5-5-5-5-5-5-5-|
PM                * * * * * * * * * * *

Chorus:
|--------------------------------------------------------------|
|--------------------------------------------------------------|
|-7-7-7-7-7--7-7-7--7-7-7-7-7-7--5-5-5-5-5--7-7-7--7-7-7-7-7-7-|
|-5-5-5-5-5--5-5-5--5-5-5-5-5-5--5-5-5-5-5--7-7-7--7-7-7-7-7-7-|
|-5-5-5-5-5--5-5-5--5-5-5-5-5-5--3-3-3-3-3--5-5-5--5-5-5-5-5-5-|
|-5-5-5-5-5--5-5-5--5-5-5-5-5-5--------------------------------|

|--------------------------------------------------------|
|--------------------------------------------------------|
|-9-9-9-9-9--9-9-9--9-9-9-9-9-9--5-5--55555-7-7--7-77777-|
|-9-9-9-9-9--9-9-9--9-9-9-9-9-9--5-5--55555-7-7--7-77777-|
|-7-7-7-7-7--7-7-7--7-7-7-7-7-7--3-3--33333-5-5--5-55555-|
|--------------------------------------------------------|

Interlude:
|----------------------------------------------------------------|
|----------------------------------------------------------------|
|----------------------------------------------------------------|
|-5-5-/9-7-5--5-5-9-10-9\7/9-------9-7-5--------9-10-9\7/9-------|
|----------------------------------------------------------5-----|
|----------------------------10-10-------10-10-------------------|

Verse 2:
|-------------------------------------------------------|
|-------------------------------------------------------|
|-------7---------5-------4--------7--------5-------7---|
|-----5----5----5---5---5--------5----7---5---5---7-----|  x2
|---5---------3-------2--------5--------3-------5-------|
|-5--------------------------5--------------------------|

|------------------------------------------------------------------|
|------------------------------------------------------------------|
|------------------------------------------------------------------|
|------------------------------------------------------------------| x2
|-5-5-5-5-5-5-5-0-3-3-3-0-2-2-2-0-5-5-5-5-5-5-5-0-3-3-3-3-5-5-5-5--|
|-5-5-5-5-5-5-5-0-----------------5-5-5-5-5-5-5-0------------------|
PM* * * * * * * * * * * * * * * * * * * * * * * * * * * * * * * *

Chorus 2:
|--------------------------------------------------------------|
|--------------------------------------------------------------|
|-7-7-7-7-7--7-7-7--7-7-7-7-7-7--5-5-5-5-5--7-7-7--7-7-7-7-7-7-|
|-5-5-5-5-5--5-5-5--5-5-5-5-5-5--5-5-5-5-5--7-7-7--7-7-7-7-7-7-|
|-5-5-5-5-5--5-5-5--5-5-5-5-5-5--3-3-3-3-3--5-5-5--5-5-5-5-5-5-|
|-5-5-5-5-5--5-5-5--5-5-5-5-5-5--------------------------------|

|--------------------------------------------------------|
|--------------------------------------------------------|
|-9-9-9-9-9--9-9-9--9-9-9-9-9-9--5-5--55555-7-7--7-77777-|
|-9-9-9-9-9--9-9-9--9-9-9-9-9-9--5-5--55555-7-7--7-77777-|
|-7-7-7-7-7--7-7-7--7-7-7-7-7-7--3-3--33333-5-5--5-55555-|
|--------------------------------------------------------|

Solo:
|--------------------------------------------------------|
|--------------------------------------------------------|
|--------------------------------------------------------|
|-/12-12-12-12--9---------9/10--9--12-12-12--9-9-10-9----|
|-------------------12-12-----------------------------12-|
|--------------------------------------------------------|

|----------------------------------------------------------------------------|
|----------------------------------------------------------------------------|
|-12-12-12-12----------------------------------------------------------------|
|--------------12-12--9----9-10------9-----9-----9-------9-----------9-------|
|-----------------------12--------12----12----12------12---12-----12---12-10-|
|----------------------------------------------------------------------------|

Pre-Chorus 2: (Tremolo picking [except for the 10 in parentheses])
|------------------------------------|
|------------------------------------|
|------------------------------------|
|------------------------------------|
|-(10)-------------------------------|
|-----------------------17\\\\\\\\\\-|

Chorus 3:  (Tremolo picking)
|
|
|
|
|
|-5555555555555555555555555555/12121212\10101010101010101010101010101010

|------------------------------------|
|------------------------------------|
|------------------------------------|
|------------------------------------|
|------------------------------------|
|-12121212121212121212121212121212-14

Stop tremolo picking
|---------------------------------------------------------|
|---------------------------------------------------------|
|-7-7-7--9-9-9-9-9--9-9-9--9-9-9-9-9-9--------------------|
|-7-7-7--9-9-9-9-9--9-9-9--9-9-9-9-9-9--5-5-5-7-9-7-9-7-5-|
|---------------------------------------------------------|
|---------------------------------------------------------|

Chorus 4:
|-------------------------------------------------------------------------|
|-------------------------------------------------------------------------|
|-7777777777777777-55555555-77777777-99999999999999999--------------------|
|-5555555555555555-55555555-77777777-99999999999999999--5-5-5-7-9-7-9-7-5-|
|-5555555555555555-33333333-55555555-77777777777777777--------------------|
|-5555555555555555--------------------------------------------------------|

Chorus/Outro:
|-----------------------------------------------------------|
|-----------------------------------------------------------|
|-7777777---5555-4444-77777777-5555-7777-77777777-5555-4444-|
|-5555555---5555-5555-55555555-5555-7777-55555555-5555-5555-|
|-5555555-0-3333-2222-55555555-3333-5555-55555555-3333-2222-|
|-5555555-0-----------55555555-----------55555555-----------|

|--------------------------|
|--------------------------|
|--------------------------|
|--5--5--5--5--5-----------|
|--5--5--5--5--5-----------|
|--5--5--5--5--5-----------|
            
Submit corrections

comments powered by Disqus
↑ Back to top | Hawk Nelson Tabs for California. Lyrics for acoustic guitar and electric guitar. Tablatures and chords are parodies/interpretations of the original songs. You may use it for private study, scholarship, research or language learning purposes only