>
 >
California Intro

California Intro Guitar Tabs

Hawk Nelson - California Intro chords, tabs, tablatures, lyrics

Guitar lessons | Add/correct | Request | Top 50 tabs Artists:  A B C D E F G H I J K L M N O P Q R S T U V W X Y Z 0-9

California Intro Guitar Tabs – Hawk Nelson

CD, Sheet music, Poster

Do you like California Intro? Share with your friends now
Tabs
I am 100 % positive that this is correct. Listen to the song for rhythms.

E---------------------------------------------------------------------------|
B---------------------------------------------------------------------------|
G---------------------------------------------------------------------------|
D--5----5----/ 9----7----5------5------5----5----/--9 --10---9--------------|
A--------------------------------------------------------------------3---3--|
E---------------------------------------------------------------------------|


E-----------------------------------------------------------------------------|
B-----------------------------------------------------------------------------|
G-----------------------------------------------------------------------------|
D----/ 9----7- -------5------------------------9-----10-----9/7/9-------------|
A----------------------------3 ---3(3) /-------------------------------------|
E------------------------------------------------------------------------5----|





Comments


Popular Hawk Nelson tabs & chords
California Bass Tabs
Arms Around Me Chords
From Underneath Chords
One Little Miracle 1 Chords
Beinem Out Intro Tabs
Its Over Intro Tabs
Live Life Loud Tabs
Shaken Intro 1 Tabs
Someone Else Before 1 Tabs
Take Me Ukulele


Song lyrics



↑ Back to top | Tablatures and chords are parodies/interpretations of the original songs. You may use it for private study, scholarship, research or language learning purposes only
© 2014 AZChords.com Contact us | Privacy policy | DMCA | Add/correct tabs | Request tabs | Top 50 tabs