» » »

Hawk Nelson, Let's Dance Tabs (ver.1)

Artists:  A B C D E F G H I J K L M N O P Q R S T U V W X Y Z # 

Let's Dance Tabs (ver.1)

Hawk Nelson Tabs
Rating:
0/5 (0 votes)
Let's Dance lessons Tabs too difficult? Try these video lessons and learn fast
                Hey this is "Let's Dance" by Hawk Nelson off their Hawk Nelson is my Friend 
album. It's a great song. This is my fourth tab.

Intro 
e|---------------------------------------------------------|
B|-2---2-2---2---------------------------------------------|
G|-2---2-2---2------------------7-----7--------------------| x2
D|-2---2-2---2-2---2-2-2---2--0-7-0-0-7-0--2-2-2-2-5-5-5-5-|
A|---3-----3---2---2-2-2---2--0-5-0-0-5-0--2-2-2-2-5-5-5-5-|
E|---------------3-------3-----------------0-0-0-0-3-3-3-3-|

Verse 1
e|-----------------------------------------|
B|-----------------------------------------|
G|-----------------------------------------| 
D|-7-7-xxx-5-5-xxx-2-2-xxx-3-3-3-3-5-5-5-5-|
A|-7-7-xxx-5-5-xxx-2-2-xxx-3-3-3-3-5-5-5-5-|
E|-5-5-xxx-3-3-xxx-0-0-xxx-1-1-1-1-3-3-3-3-|

e|--------------------------------------------|
B|--------------------------------------------|
G|--------------------------------------------|
D|-7-7-x-7--5-5-x-5--2-2-x-2--3-3-3-3-5-5-5-5-|
A|-7-7-x-7--5-5-x-5--2-2-x-2--3-3-3-3-5-5-5-5-|
E|-5-5-x-5--3-3-x-3--0-0-x-0--1-1-1-1-5-5-5-5-|


Pre Chorus (Weird Strumming Pattern First Time)
e|-----------------------------------------------------------------|
B|-----------------------------------------------------------------|
G|-----------------5-5-5-5-5-5-5-5---------------------------------| x2
D|-3-3-3-3-3-3-3-3-5-5-5-5-5-5-5-5-5-5-5-5-5-5-5-5-7-7-7-7-7-7-7-7-|
A|-3-3-3-3-3-3-3-3-3-3-3-3-3-3-3-3-5-5-5-5-5-5-5-5-7-7-7-7-7-7-7-7-|
E|-1-1-1-1-1-1-1-1-----------------3-3-3-3-3-3-3-3-5-5-5-5-5-5-5-5-|

Chorus 1
e|-----------------------------------------------------------------|
B|-----------------------------------------------------------------|
G|-----------------5-5-5-5-5-5-5-5---------------------------------| x2
D|-3-3-3-3-3-3-3-3-5-5-5-5-5-5-5-5-5-5-5-5-5-5-5-5-7-7-7-7-7-7-7-7-|
A|-3-3-3-3-3-3-3-3-3-3-3-3-3-3-3-3-5-5-5-5-5-5-5-5-7-7-7-7-7-7-7-7-|
E|-1-1-1-1-1-1-1-1-----------------3-3-3-3-3-3-3-3-5-5-5-5-5-5-5-5-|

Post Chorus
e|---------------------------------------------------------|
B|-2---2-2---2---------------------------------------------|
G|-2---2-2---2------------------7-----7--------------------| 
D|-2---2-2---2-2---2-2-2---2--0-7-0-0-7-0--2-2-2-2-5-5-5-5-|
A|---3-----3---2---2-2-2---2--0-5-0-0-5-0--2-2-2-2-5-5-5-5-|
E|---------------3-------3-----------------0-0-0-0-3-3-3-3-|

Verse 2
e|---------------------------------------------|
B|---------------------------------------------|
G|---------------------------------------------|
D|-7-7-------5-5-------2-2-xxx-3-3-3-3-5-5-5-5-|
A|-7-7-------5-5-------2-2-xxx-3-3-3-3-5-5-5-5-|
E|-5-5-8p7p5-3-3-5p3p0-0-0-xxx-1-1-1-1-3-3-3-3-|

e|------------------------------------------------------|
B|------------------------------------------------------|
G|------------------------------------------------------|
D|-7-7-------5-5-------2-2-2-2-2-2-2-2--3-3-3-3-5-5-5-5-|
A|-7-7-------5-5-------2-2-2-2-2-2-2-2--3-3-3-3-5-5-5-5-|
E|-5-5-8p7p5-3-3-5p3p0-0-0-0-0-0-0-0-0--1-1-1-1-3-3-3-3-|

Pre Chorus (Weird Strumming Pattern First Time)
e|-----------------------------------------------------------------|
B|-----------------------------------------------------------------|
G|-----------------5-5-5-5-5-5-5-5---------------------------------| x2
D|-3-3-3-3-3-3-3-3-5-5-5-5-5-5-5-5-5-5-5-5-5-5-5-5-7-7-7-7-7-7-7-7-|
A|-3-3-3-3-3-3-3-3-3-3-3-3-3-3-3-3-5-5-5-5-5-5-5-5-7-7-7-7-7-7-7-7-|
E|-1-1-1-1-1-1-1-1-----------------3-3-3-3-3-3-3-3-5-5-5-5-5-5-5-5-|

Chorus 2
e|-----------------------------------------------------------------|
B|-----------------------------------------------------------------|
G|-----------------5-5-5-5-5-5-5-5---------------------------------| x2
D|-3-3-3-3-3-3-3-3-5-5-5-5-5-5-5-5-5-5-5-5-5-5-5-5-7-7-7-7-7-7-7-7-|
A|-3-3-3-3-3-3-3-3-3-3-3-3-3-3-3-3-5-5-5-5-5-5-5-5-7-7-7-7-7-7-7-7-|
E|-1-1-1-1-1-1-1-1-----------------3-3-3-3-3-3-3-3-5-5-5-5-5-5-5-5-|

Bridge (With Wah)
e|--------------------------------------------------------|
B|-2---2-----2-------2---2--2---2-----2-------------------|
G|-2---2-----2-------2---2--2---2-----2---5-5-5-5-7-7-7-7-| x2
D|-2---2-----2-------2---2--2---2-----2---5-5-5-5-7-7-7-7-|
A|----------------------------------------3-3-3-3-5-5-5-5-|
E|---3---3-3---3-3-3---3------3---3-3---3-----------------|

(Tacet for a Measure)

Pre Chorus
e|--------------------------------|
B|--------------------------------|
G|----------------5-5-5-5-7-7-7-7-|
D|-7~~~~3~~~~5~~~~5-5-5-5-7-7-7-7-|
A|-7~~~~3~~~~5~~~~3-3-3-3-5-5-5-5-|
E|-5~~~~1~~~~3~~~~----------------|

Chorus 3
e|-----------------------------------------------------------------|
B|-----------------------------------------------------------------|
G|-----------------5-5-5-5-5-5-5-5---------------------------------| x4
D|-3-3-3-3-3-3-3-3-5-5-5-5-5-5-5-5-5-5-5-5-5-5-5-5-7-7-7-7-7-7-7-7-|
A|-3-3-3-3-3-3-3-3-3-3-3-3-3-3-3-3-5-5-5-5-5-5-5-5-7-7-7-7-7-7-7-7-|
E|-1-1-1-1-1-1-1-1-----------------3-3-3-3-3-3-3-3-5-5-5-5-5-5-5-5-|

Outro
e|---------------------------------------------------------|
B|-2---2-2---2---------------------------------------------|
G|-2---2-2---2------------------7-----7--------------------| x2
D|-2---2-2---2-2---2-2-2---2--0-7-0-0-7-0--2-2-2-2-5-5-5-5-|
A|---3-----3---2---2-2-2---2--0-5-0-0-5-0--2-2-2-2-5-5-5-5-|
E|---------------3-------3-----------------0-0-0-0-3-3-3-3-|
            

comments powered by Disqus
↑ Back to top | Hawk Nelson Tabs for Let's Dance. Lyrics for acoustic guitar and electric guitar. Tablatures and chords are parodies/interpretations of the original songs. You may use it for private study, scholarship, research or language learning purposes only