» » »

Hammerfall, Carved In Stone Tabs (ver.2)

Artists:  A B C D E F G H I J K L M N O P Q R S T U V W X Y Z # 

Carved In Stone Tabs (ver.2)

Hammerfall Tabs
Rating:
4/5 (1 vote)
Carved In Stone lessons Tabs too difficult? Try these video lessons and learn fast
                "(Part)
Tuning: D
This is the second part of what i began with , there will also be a third with the solo 
outro.
It took so much time coz i fixed the 3rd part too before i tabbed this one.

  Pre Chorus : Both guitars
e|---------------------------------------------------------------|
B|---------------------------------------------------------------|
G|---------------------------------------------------------------|
D|---6---3---6---------10-------10-------10----------------------|
A|---4---1---8---------8--8--8--8--8--8--8-----------------------|
E|---------------------------------------------------------------|

  Chorus : Guitar 1 / Guitar 2
e|---------------------------------------------------------------|
B|---------------------------------------------------------------|
G|---------------------------------------------------------------|
D|---5-------------5-------------8-------------8-----------------|
A|---3----3--3--3--3----3--3--3--6----6--6--6--6----6--6--6------|
E|---------------------------------------------------------------|

  Guitar 1
e|----------------------------------------------------------------|
B|----------------------------------------------------------------|
G|----------------------------------------------------------------|
D|----------------------------------------------------------------|
A|---11--10--8--8--10--11--11--10--8--8-----8--10--11-------------|
E|----------------------------------------------------------------|

  Guitar 2
e|----------------------------------------------------------------|
B|----------------------------------------------------------------|
G|----------------------------------------------------------------|
D|-------------------------------6-------------6----8-------------|
A|---3-------------3-------------4----4--4--4--4----6-------------|
E|---1----1--1--1--1----1--1--1-----------------------------------|


  Both Guitars
e|----------------------------------------------------------------|
B|----------------------------------------------------------------|
G|----------------------------------------------------------------|
D|---10-------------10-------------8-------------8----------------|
A|---8-----8--8--8--8-----8--8--8--6----6--6--6--6----6--6--6-----|
E|----------------------------------------------------------------|

  Guitar 1
e|----------------------------------------------------------------|
B|----------------------------------------------------------------|
G|----------------------------------------------------------------|
D|----------------------------------------------------------------|
A|---11--10--8--8--10--11--10-----11--10--11----13----10----------|
E|----------------------------------------------------------------|

  Guitar 2
e|----------------------------------------------------------------|
B|----------------------------------------------------------------|
G|----------------------------------------------------------------|
D|-------------------------------6-------------8----10------------|
A|---3-------------3-------------4----4--4--4--6----8-------------|
E|---1----1--1--1--1----1--1--1-----------------------------------|

  Bridge : The first guitar goes just as the Intro But this is how the second goes : 
2


e|----------------------------------------------------------------|
B|----------------------------------------------------------------|
G|---10--12--13--10--13--12--10--12--13--10--13--12---------------|
D|----------------------------------------------------------------|
A|----------------------------------------------------------------|
E|----------------------------------------------------------------|

e|----------------------------------------------------------------|
B|----------------------------------------------------------------|
G|----------------------------------------------------------------|
D|-------12--13-----15--13-----12--13--15--13--12-----------------|
A|---13----------13---------13------------------------------------|
E|----------------------------------------------------------------|
                                                               X2

e|----------------------------------------------------------------|
B|----------------------------------------------------------------|
G|----------------------------------------------------------------|
D|-------12--13------15--13------12--13------15--13---------------|
A|---11----------11----------11----------11-----------------------|
E|----------------------------------------------------------------|

e|----------------------------------------------------------------|
B|--------------------------------------11------------------------|
G|---10--12--13--10--13--12--10--12--13----13--12-----------------|
D|----------------------------------------------------------------|
A|----------------------------------------------------------------|
E|----------------------------------------------------------------|

e|----------------------------------------------------------------|
B|----------------------------------------------------------------|
G|------12--13------13--12-----12--13--15--13--12-----------------|
D|---13---------13----------13------------------------------------|
A|----------------------------------------------------------------|
E|----------------------------------------------------------------|

e|----------------------------------------------------------------|
B|----------------------------------------------------------------|
G|------12--13------15--13------12--13-----15--13-----------------|
D|---10---------10----------10----------10------------------------|
A|----------------------------------------------------------------|
E|----------------------------------------------------------------|

  Verse 3 : Both Guitars
e|----------------------------------------------------------------|
B|----------------------------------------------------------------|
G|----------------------------------------------------------------|
D|---10-------10-------10-------10-------8--------8--------8------|
A|---8--8--8--8--8--8--8--8--8--8--8--8--6--6--6--6--6--6--6------|
E|----------------------------------------------------------------|
                                                               X2

e|----------------------------------------------------------------|
B|----------------------------------------------------------------|
G|----------------------------------------------------------------|
D|---6--------6--------6--------6--------10-------10-------10-----|
A|---4--4--4--4--4--4--4--4--4--4--4--4--8--8--8--8--8--8--8------|
E|----------------------------------------------------------------|

e|----------------------------------------------------------------|
B|----------------------------------------------------------------|
G|----------------------------------------------------------------|
D|---8--------8--------8---------5--------5--------5--------------|
A|---6--6--6--6--6--6--6---------3--3--3--3--3--3--3--------------|
E|----------------------------------------------------------------|

Now Repeat: Pre Chorus And Chorus

          Break
  Guitar 1
e|----------------------------------------------------------------|
B|----------------------------------------------------------------|
G|----------------------------------------------------------------|
D|---10-------10-------10-----------------------------------------|
A|---8--8--8--8--8--8--8--10-10-10--------------------------------|
E|------------------------8--8--8---------------------------------|

  Guitar 2
e|----------------------------------------------------------------|
B|----------------------------------------------------------------|
G|----------------------------------------------------------------|
D|---10-----------------------------------------------------------|
A|---8--------------------10-10-10--------------------------------|
E|------------------------8--8--8---------------------------------|

  Guitar 1
e|----------------------------------------------------------------|
B|----------------------------------------------------------------|
G|----------------------------------------------------------------|
D|---8--------8--------8------------------------------------------|
A|---6--6--6--6--6--6--6--8--8--8---------------------------------|
E|------------------------6--6--6---------------------------------|

  Guitar 2
e|----------------------------------------------------------------|
B|----------------------------------------------------------------|
G|----------------------------------------------------------------|
D|---8------------------------------------------------------------|
A|---6--------------------8--8--8---------------------------------|
E|------------------------6--6--6---------------------------------|

    Guitar 1
e|----------------------------------------------------------------|
B|----------------------------------------------------------------|
G|----------------------------------------------------------------|
D|---10-------10-------10-----------------------------------------|
A|---8--8--8--8--8--8--8--10-10-10--------------------------------|
E|------------------------8--8--8---------------------------------|

  Guitar 2
e|----------------------------------------------------------------|
B|----------------------------------------------------------------|
G|----------------------------------------------------------------|
D|---10-----------------------------------------------------------|
A|---8--------------------10-10-10--------------------------------|
E|------------------------8--8--8---------------------------------|

  Both Guitars
e|----------------------------------------------------------------|
B|----------------------------------------------------------------|
G|----------------------------------------------------------------|
D|---------------------5------------------------------------------|
A|---5--------5--------3------------------------------------------|
E|---3--3--3--3--3--3---------------------------------------------|

 Now Repeat the break

Thx all for watchingn and anyone plz give some comments and ratings i almost dont have 
xP.... See Ya in Last part good luck.
"            
Submit corrections

comments powered by Disqus
↑ Back to top | Hammerfall Tabs for Carved In Stone. Lyrics for acoustic guitar and electric guitar. Tablatures and chords are parodies/interpretations of the original songs. You may use it for private study, scholarship, research or language learning purposes only